  0
SECTION
  2
HEADER
  9
$ACADVER
  1
AC1015
  9
$ACADMAINTVER
 70
     6
  9
$DWGCODEPAGE
  3
ANSI_1250
  9
$INSBASE
 10
0.0
 20
0.0
 30
0.0
  9
$EXTMIN
 10
0.0
 20
0.0
 30
0.0
  9
$EXTMAX
 10
20000.0
 20
10000.0
 30
0.0
  9
$LIMMIN
 10
0.0
 20
0.0
  9
$LIMMAX
 10
20000.0
 20
10000.0
  9
$ORTHOMODE
 70
     0
  9
$REGENMODE
 70
     1
  9
$FILLMODE
 70
     1
  9
$QTEXTMODE
 70
     0
  9
$MIRRTEXT
 70
     1
  9
$LTSCALE
 40
1.0
  9
$ATTMODE
 70
     1
  9
$TEXTSIZE
 40
2.0
  9
$TRACEWID
 40
1.0
  9
$TEXTSTYLE
  7
Standard
  9
$CLAYER
  8
0
  9
$CELTYPE
  6
ByLayer
  9
$CECOLOR
 62
   256
  9
$CELTSCALE
 40
1.0
  9
$DISPSILH
 70
     0
  9
$DIMSCALE
 40
1.0
  9
$DIMASZ
 40
2.0
  9
$DIMEXO
 40
1.0
  9
$DIMDLI
 40
3.75
  9
$DIMRND
 40
0.0
  9
$DIMDLE
 40
0.0
  9
$DIMEXE
 40
1.0
  9
$DIMTP
 40
0.0
  9
$DIMTM
 40
0.0
  9
$DIMTXT
 40
2.0
  9
$DIMCEN
 40
2.5
  9
$DIMTSZ
 40
0.0
  9
$DIMTOL
 70
     0
  9
$DIMLIM
 70
     0
  9
$DIMTIH
 70
     1
  9
$DIMTOH
 70
     1
  9
$DIMSE1
 70
     0
  9
$DIMSE2
 70
     0
  9
$DIMTAD
 70
     1
  9
$DIMZIN
 70
     0
  9
$DIMBLK
  1

  9
$DIMASO
 70
     1
  9
$DIMSHO
 70
     1
  9
$DIMPOST
  1

  9
$DIMAPOST
  1

  9
$DIMALT
 70
     0
  9
$DIMALTD
 70
     3
  9
$DIMALTF
 40
0.0393700787
  9
$DIMLFAC
 40
1.0
  9
$DIMTOFL
 70
     1
  9
$DIMTVP
 40
0.0
  9
$DIMTIX
 70
     0
  9
$DIMSOXD
 70
     0
  9
$DIMSAH
 70
     0
  9
$DIMBLK1
  1

  9
$DIMBLK2
  1

  9
$DIMSTYLE
  2
ISO-25
  9
$DIMCLRD
 70
     0
  9
$DIMCLRE
 70
     0
  9
$DIMCLRT
 70
     0
  9
$DIMTFAC
 40
1.0
  9
$DIMGAP
 40
1.524
  9
$DIMJUST
 70
     0
  9
$DIMSD1
 70
     0
  9
$DIMSD2
 70
     0
  9
$DIMTOLJ
 70
     0
  9
$DIMTZIN
 70
     0
  9
$DIMALTZ
 70
     0
  9
$DIMALTTZ
 70
     0
  9
$DIMUPT
 70
     0
  9
$DIMDEC
 70
     2
  9
$DIMTDEC
 70
     0
  9
$DIMALTU
 70
     2
  9
$DIMALTTD
 70
     3
  9
$DIMTXSTY
  7
Standard
  9
$DIMAUNIT
 70
     0
  9
$DIMADEC
 70
     2
  9
$DIMALTRND
 40
0.0
  9
$DIMAZIN
 70
     0
  9
$DIMDSEP
 70
    44
  9
$DIMATFIT
 70
     3
  9
$DIMFRAC
 70
     0
  9
$DIMLDRBLK
  1

  9
$DIMLUNIT
 70
     2
  9
$DIMLWD
 70
    -2
  9
$DIMLWE
 70
    -2
  9
$DIMTMOVE
 70
     0
  9
$LUNITS
 70
     2
  9
$LUPREC
 70
     3
  9
$SKETCHINC
 40
1.0
  9
$FILLETRAD
 40
10.0
  9
$AUNITS
 70
     0
  9
$AUPREC
 70
     2
  9
$MENU
  1
.
  9
$ELEVATION
 40
0.0
  9
$PELEVATION
 40
0.0
  9
$THICKNESS
 40
0.0
  9
$LIMCHECK
 70
     0
  9
$CHAMFERA
 40
0.0
  9
$CHAMFERB
 40
0.0
  9
$CHAMFERC
 40
0.0
  9
$CHAMFERD
 40
0.0
  9
$SKPOLY
 70
     0
  9
$TDCREATE
 40
2459093.376072674
  9
$TDUCREATE
 40
2459093.29273934
  9
$TDUPDATE
 40
2459093.376073252
  9
$TDUUPDATE
 40
2459093.292739919
  9
$TDINDWG
 40
0.0000000116
  9
$TDUSRTIMER
 40
0.0000000116
  9
$USRTIMER
 70
     1
  9
$ANGBASE
 50
0.0
  9
$ANGDIR
 70
     0
  9
$PDMODE
 70
     0
  9
$PDSIZE
 40
-1.0
  9
$PLINEWID
 40
0.0
  9
$SPLFRAME
 70
     0
  9
$SPLINETYPE
 70
     6
  9
$SPLINESEGS
 70
     8
  9
$HANDSEED
  5
421
  9
$SURFTAB1
 70
     6
  9
$SURFTAB2
 70
     6
  9
$SURFTYPE
 70
     6
  9
$SURFU
 70
     6
  9
$SURFV
 70
     6
  9
$UCSBASE
  2

  9
$UCSNAME
  2

  9
$UCSORG
 10
0.0
 20
0.0
 30
0.0
  9
$UCSXDIR
 10
1.0
 20
0.0
 30
0.0
  9
$UCSYDIR
 10
0.0
 20
1.0
 30
0.0
  9
$UCSORTHOREF
  2

  9
$UCSORTHOVIEW
 70
     0
  9
$UCSORGTOP
 10
0.0
 20
0.0
 30
0.0
  9
$UCSORGBOTTOM
 10
0.0
 20
0.0
 30
0.0
  9
$UCSORGLEFT
 10
0.0
 20
0.0
 30
0.0
  9
$UCSORGRIGHT
 10
0.0
 20
0.0
 30
0.0
  9
$UCSORGFRONT
 10
0.0
 20
0.0
 30
0.0
  9
$UCSORGBACK
 10
0.0
 20
0.0
 30
0.0
  9
$PUCSBASE
  2

  9
$PUCSNAME
  2

  9
$PUCSORG
 10
0.0
 20
0.0
 30
0.0
  9
$PUCSXDIR
 10
1.0
 20
0.0
 30
0.0
  9
$PUCSYDIR
 10
0.0
 20
1.0
 30
0.0
  9
$PUCSORTHOREF
  2

  9
$PUCSORTHOVIEW
 70
     0
  9
$PUCSORGTOP
 10
0.0
 20
0.0
 30
0.0
  9
$PUCSORGBOTTOM
 10
0.0
 20
0.0
 30
0.0
  9
$PUCSORGLEFT
 10
0.0
 20
0.0
 30
0.0
  9
$PUCSORGRIGHT
 10
0.0
 20
0.0
 30
0.0
  9
$PUCSORGFRONT
 10
0.0
 20
0.0
 30
0.0
  9
$PUCSORGBACK
 10
0.0
 20
0.0
 30
0.0
  9
$USERI1
 70
     0
  9
$USERI2
 70
     0
  9
$USERI3
 70
     0
  9
$USERI4
 70
     0
  9
$USERI5
 70
     0
  9
$USERR1
 40
0.0
  9
$USERR2
 40
0.0
  9
$USERR3
 40
0.0
  9
$USERR4
 40
0.0
  9
$USERR5
 40
0.0
  9
$WORLDVIEW
 70
     1
  9
$SHADEDGE
 70
     3
  9
$SHADEDIF
 70
    70
  9
$TILEMODE
 70
     1
  9
$MAXACTVP
 70
    64
  9
$PINSBASE
 10
0.0
 20
0.0
 30
0.0
  9
$PLIMCHECK
 70
     0
  9
$PEXTMIN
 10
1.0000000000E+20
 20
1.0000000000E+20
 30
1.0000000000E+20
  9
$PEXTMAX
 10
-1.0000000000E+20
 20
-1.0000000000E+20
 30
-1.0000000000E+20
  9
$PLIMMIN
 10
0.0
 20
0.0
  9
$PLIMMAX
 10
420.0
 20
297.0
  9
$UNITMODE
 70
     0
  9
$VISRETAIN
 70
     1
  9
$PLINEGEN
 70
     0
  9
$PSLTSCALE
 70
     1
  9
$TREEDEPTH
 70
  3020
  9
$CMLSTYLE
  2
Standard
  9
$CMLJUST
 70
     0
  9
$CMLSCALE
 40
20.0
  9
$PROXYGRAPHICS
 70
     1
  9
$MEASUREMENT
 70
     1
  9
$CELWEIGHT
370
    -1
  9
$ENDCAPS
280
     0
  9
$JOINSTYLE
280
     0
  9
$LWDISPLAY
290
     1
  9
$INSUNITS
 70
     4
  9
$HYPERLINKBASE
  1

  9
$STYLESHEET
  1

  9
$XEDIT
290
     1
  9
$CEPSNTYPE
380
     0
  9
$PSTYLEMODE
290
     1
  9
$FINGERPRINTGUID
  2
{33895aaf-b3f8-4072-9ed0-81e472b1def5}
  9
$VERSIONGUID
  2
{FAEB1C32-E019-11D5-929B-00C0DF256EC4}
  9
$EXTNAMES
290
     1
  9
$PSVPSCALE
 40
0.0
  9
$OLESTARTUP
290
     0
  0
ENDSEC
  0
SECTION
  2
CLASSES
  0
CLASS
  1
ACDBDICTIONARYWDFLT
  2
AcDbDictionaryWithDefault
  3
ObjectDBX Classes
 90
        0
280
     0
281
     0
  0
CLASS
  1
VISUALSTYLE
  2
AcDbVisualStyle
  3
ObjectDBX Classes
 90
     4095
280
     0
281
     0
  0
CLASS
  1
MATERIAL
  2
AcDbMaterial
  3
ObjectDBX Classes
 90
     1153
280
     0
281
     0
  0
CLASS
  1
SCALE
  2
AcDbScale
  3
ObjectDBX Classes
 90
     1153
280
     0
281
     0
  0
CLASS
  1
TABLESTYLE
  2
AcDbTableStyle
  3
ObjectDBX Classes
 90
     4095
280
     0
281
     0
  0
CLASS
  1
MLEADERSTYLE
  2
AcDbMLeaderStyle
  3
ACDB_MLEADERSTYLE_CLASS
 90
     4095
280
     0
281
     0
  0
CLASS
  1
SUN
  2
AcDbSun
  3
SCENEOE
 90
     1153
280
     0
281
     0
  0
CLASS
  1
ACDBPLACEHOLDER
  2
AcDbPlaceHolder
  3
ObjectDBX Classes
 90
        0
280
     0
281
     0
  0
CLASS
  1
LAYOUT
  2
AcDbLayout
  3
ObjectDBX Classes
 90
        0
280
     0
281
     0
  0
ENDSEC
  0
SECTION
  2
TABLES
  0
TABLE
  2
VPORT
  5
8
330
0
100
AcDbSymbolTable
 70
     1
  0
VPORT
  5
29
330
8
100
AcDbSymbolTableRecord
100
AcDbViewportTableRecord
  2
*Active
 70
     0
 10
0.0
 20
0.0
 11
1.0
 21
1.0
 12
10000.0
 22
5000.0
 13
0.0
 23
0.0
 14
10.0
 24
10.0
 15
10.0
 25
10.0
 16
0.0
 26
0.0
 36
1.0
 17
0.0
 27
0.0
 37
0.0
 40
10000.0
 41
2.0
 42
50.0
 43
0.0
 44
0.0
 50
0.0
 51
0.0
 71
     0
 72
  2000
 73
     1
 74
     3
 75
     0
 76
     0
 77
     0
 78
     0
281
     0
 65
     1
110
0.0
120
0.0
130
0.0
111
1.0
121
0.0
131
0.0
112
0.0
122
1.0
132
0.0
 79
     0
146
0.0
  0
ENDTAB
  0
TABLE
  2
LTYPE
  5
5
330
0
100
AcDbSymbolTable
 70
     6
  0
LTYPE
  5
14
330
5
100
AcDbSymbolTableRecord
100
AcDbLinetypeTableRecord
  2
ByBlock
 70
     0
  3

 72
    65
 73
     0
 40
0.0
  0
LTYPE
  5
15
330
5
100
AcDbSymbolTableRecord
100
AcDbLinetypeTableRecord
  2
ByLayer
 70
     0
  3

 72
    65
 73
     0
 40
0.0
  0
LTYPE
  5
16
330
5
100
AcDbSymbolTableRecord
100
AcDbLinetypeTableRecord
  2
Continuous
 70
     0
  3
Solid line
 72
    65
 73
     0
 40
0.0
  0
LTYPE
  5
6E
330
5
100
AcDbSymbolTableRecord
100
AcDbLinetypeTableRecord
  2
HIDDEN
 70
     0
  3
Hidden __ __ __ __ __ __ __ __ __ __ __ __ __ __
 72
    65
 73
     2
 40
1.905
 49
1.27
 74
     0
 49
-0.635
 74
     0
  0
LTYPE
  5
6F
330
5
100
AcDbSymbolTableRecord
100
AcDbLinetypeTableRecord
  2
PHANTOM
 70
     0
  3
Phantom ______  __  __  ______  __  __  ______
 72
    65
 73
     6
 40
12.7
 49
6.35
 74
     0
 49
-1.27
 74
     0
 49
1.27
 74
     0
 49
-1.27
 74
     0
 49
1.27
 74
     0
 49
-1.27
 74
     0
  0
LTYPE
  5
70
330
5
100
AcDbSymbolTableRecord
100
AcDbLinetypeTableRecord
  2
CENTER
 70
     0
  3
Center ____ _ ____ _ ____ _ ____ _ ____ _ ____
 72
    65
 73
     4
 40
10.16
 49
6.35
 74
     0
 49
-1.27
 74
     0
 49
1.27
 74
     0
 49
-1.27
 74
     0
  0
LTYPE
  5
71
330
5
100
AcDbSymbolTableRecord
100
AcDbLinetypeTableRecord
  2
CENTERX2
 70
     0
  3
Center (2x) ________  __  ________  __  _____
 72
    65
 73
     4
 40
20.32
 49
12.7
 74
     0
 49
-2.54
 74
     0
 49
2.54
 74
     0
 49
-2.54
 74
     0
  0
LTYPE
  5
72
330
5
100
AcDbSymbolTableRecord
100
AcDbLinetypeTableRecord
  2
DOT2
 70
     0
  3
Dot (.5x) ........................................
 72
    65
 73
     2
 40
0.635
 49
0.0
 74
     0
 49
-0.635
 74
     0
  0
ENDTAB
  0
TABLE
  2
LAYER
  5
2
330
0
100
AcDbSymbolTable
 70
    13
  0
LAYER
  5
10
330
2
100
AcDbSymbolTableRecord
100
AcDbLayerTableRecord
  2
0
 70
     0
 62
     7
  6
Continuous
370
    -3
390
F
  0
LAYER
  5
73
330
2
100
AcDbSymbolTableRecord
100
AcDbLayerTableRecord
  2
FORMAT
 70
     0
 62
     7
  6
Continuous
370
    -3
390
F
  0
LAYER
  5
74
330
2
100
AcDbSymbolTableRecord
100
AcDbLayerTableRecord
  2
OSA
 70
     0
 62
     7
  6
CENTER
370
    -3
390
F
  0
LAYER
  5
75
330
2
100
AcDbSymbolTableRecord
100
AcDbLayerTableRecord
  2
0_35
 70
     0
 62
     7
  6
Continuous
370
    35
390
F
  0
LAYER
  5
76
330
2
100
AcDbSymbolTableRecord
100
AcDbLayerTableRecord
  2
0_5
 70
     0
 62
     7
  6
Continuous
370
    50
390
F
  0
LAYER
  5
77
330
2
100
AcDbSymbolTableRecord
100
AcDbLayerTableRecord
  2
0_25
 70
     0
 62
     7
  6
Continuous
370
    25
390
F
  0
LAYER
  5
78
330
2
100
AcDbSymbolTableRecord
100
AcDbLayerTableRecord
  2
0_18
 70
     0
 62
     7
  6
Continuous
370
    -3
390
F
  0
LAYER
  5
79
330
2
100
AcDbSymbolTableRecord
100
AcDbLayerTableRecord
  2
SLD-0
 70
     0
 62
   179
  6
Continuous
370
    -3
390
F
  0
LAYER
  5
7A
330
2
100
AcDbSymbolTableRecord
100
AcDbLayerTableRecord
  2
KOTY
 70
     0
 62
     7
  6
Continuous
370
    -3
390
F
  0
LAYER
  5
7B
330
2
100
AcDbSymbolTableRecord
100
AcDbLayerTableRecord
  2
SILNA
 70
     0
 62
   179
  6
Continuous
370
    -3
390
F
  0
LAYER
  5
7C
330
2
100
AcDbSymbolTableRecord
100
AcDbLayerTableRecord
  2
0_18_1
 70
     0
 62
   179
  6
Continuous
370
    -3
390
F
  0
LAYER
  5
7D
330
2
100
AcDbSymbolTableRecord
100
AcDbLayerTableRecord
  2
0_35_1
 70
     0
 62
   179
  6
Continuous
370
    35
390
F
  0
LAYER
  5
7E
330
2
100
AcDbSymbolTableRecord
100
AcDbLayerTableRecord
  2
0_5_1
 70
     0
 62
   179
  6
Continuous
370
    50
390
F
  0
ENDTAB
  0
TABLE
  2
STYLE
  5
3
330
0
100
AcDbSymbolTable
 70
     1
  0
STYLE
  5
11
330
3
100
AcDbSymbolTableRecord
100
AcDbTextStyleTableRecord
  2
Standard
 70
     0
 40
0.0
 41
1.0
 50
0.0
 71
     0
 42
2.0
  3
txt
  4

  0
ENDTAB
  0
TABLE
  2
VIEW
  5
6
330
0
100
AcDbSymbolTable
 70
     0
  0
ENDTAB
  0
TABLE
  2
UCS
  5
7
330
0
100
AcDbSymbolTable
 70
     0
  0
ENDTAB
  0
TABLE
  2
APPID
  5
9
330
0
100
AcDbSymbolTable
 70
     1
  0
APPID
  5
12
330
9
100
AcDbSymbolTableRecord
100
AcDbRegAppTableRecord
  2
ACAD
 70
     0
  0
ENDTAB
  0
TABLE
  2
DIMSTYLE
  5
A
330
0
100
AcDbSymbolTable
 70
     1
100
AcDbDimStyleTable
  0
DIMSTYLE
105
27
330
A
100
AcDbSymbolTableRecord
100
AcDbDimStyleTableRecord
  2
ISO-25
 70
     0
 41
2.5
 42
0.625
 43
3.75
 44
1.25
 73
     0
 74
     0
 77
     1
 78
     8
140
2.5
141
2.5
143
0.0393700787
147
0.625
171
     3
172
     1
178
     0
271
     2
272
     2
274
     3
278
    44
283
     0
284
     8
340
11
  0
ENDTAB
  0
TABLE
  2
BLOCK_RECORD
  5
1
330
0
100
AcDbSymbolTable
 70
     1
  0
BLOCK_RECORD
  5
1F
330
1
100
AcDbSymbolTableRecord
100
AcDbBlockTableRecord
  2
*Model_Space
340
22
  0
BLOCK_RECORD
  5
1B
330
1
100
AcDbSymbolTableRecord
100
AcDbBlockTableRecord
  2
*Paper_Space
340
1E
  0
BLOCK_RECORD
  5
23
330
1
100
AcDbSymbolTableRecord
100
AcDbBlockTableRecord
  2
*Paper_Space0
340
26
  0
ENDTAB
  0
ENDSEC
  0
SECTION
  2
BLOCKS
  0
BLOCK
  5
20
330
1F
100
AcDbEntity
  8
0
100
AcDbBlockBegin
  2
*Model_Space
 70
     0
 10
0.0
 20
0.0
 30
0.0
  3
*Model_Space
  1

  0
ENDBLK
  5
21
330
1F
100
AcDbEntity
  8
0
100
AcDbBlockEnd
  0
BLOCK
  5
1C
330
1B
100
AcDbEntity
 67
     1
  8
0
100
AcDbBlockBegin
  2
*Paper_Space
 70
     0
 10
0.0
 20
0.0
 30
0.0
  3
*Paper_Space
  1

  0
ENDBLK
  5
1D
330
1B
100
AcDbEntity
 67
     1
  8
0
100
AcDbBlockEnd
  0
BLOCK
  5
24
330
23
100
AcDbEntity
  8
0
100
AcDbBlockBegin
  2
*Paper_Space0
 70
     0
 10
0.0
 20
0.0
 30
0.0
  3
*Paper_Space0
  1

  0
ENDBLK
  5
25
330
23
100
AcDbEntity
  8
0
100
AcDbBlockEnd
  0
ENDSEC
  0
SECTION
  2
ENTITIES
  0
ARC
  5
7F
330
1F
100
AcDbEntity
  8
0
  6
Continuous
 62
     7
370
    25
100
AcDbCircle
 10
4033.711443858
 20
7091.0961252424
 30
0.0
 40
15.0
100
AcDbArc
 50
360.0
 51
90.0
  0
ARC
  5
80
330
1F
100
AcDbEntity
  8
0
  6
Continuous
 62
     7
370
    25
100
AcDbCircle
 10
3546.211443858
 20
7091.0961252424
 30
0.0
 40
15.0
100
AcDbArc
 50
90.0
 51
180.0
  0
LINE
  5
81
330
1F
100
AcDbEntity
  8
0
  6
Continuous
 62
     7
370
    25
100
AcDbLine
 10
4048.711443858
 20
7021.0961252424
 30
0.0
 11
4048.711443858
 21
7091.0961252424
 31
0.0
  0
LINE
  5
82
330
1F
100
AcDbEntity
  8
0
  6
Continuous
 62
     7
370
    25
100
AcDbLine
 10
3531.211443858
 20
7091.0961252424
 30
0.0
 11
3531.211443858
 21
7021.0961252424
 31
0.0
  0
ARC
  5
83
330
1F
100
AcDbEntity
  8
0
  6
Continuous
 62
     7
370
    25
100
AcDbCircle
 10
4041.211443858
 20
7008.5961252424
 30
0.0
 40
12.50000000000091
100
AcDbArc
 50
0.0
 51
90.0
  0
ARC
  5
84
330
1F
100
AcDbEntity
  8
0
  6
Continuous
 62
     7
370
    25
100
AcDbCircle
 10
3538.711443858
 20
7008.5961252424
 30
0.0
 40
12.50000000000091
100
AcDbArc
 50
90.0
 51
180.0
  0
LINE
  5
85
330
1F
100
AcDbEntity
  8
0
  6
Continuous
 62
     7
370
    25
100
AcDbLine
 10
4053.711443858
 20
6411.0961252424
 30
0.0
 11
4053.711443858
 21
7008.5961252424
 31
0.0
  0
LINE
  5
86
330
1F
100
AcDbEntity
  8
0
  6
Continuous
 62
     7
370
    25
100
AcDbLine
 10
3526.211443858
 20
7008.5961252424
 30
0.0
 11
3526.211443858
 21
6411.0961252424
 31
0.0
  0
ARC
  5
87
330
1F
100
AcDbEntity
  8
0
  6
Continuous
 62
     7
370
    25
100
AcDbCircle
 10
4041.211443858
 20
6411.0961252424
 30
0.0
 40
12.5
100
AcDbArc
 50
270.0
 51
0.0
  0
ARC
  5
88
330
1F
100
AcDbEntity
  8
0
  6
Continuous
 62
     7
370
    25
100
AcDbCircle
 10
3538.711443858
 20
6411.0961252424
 30
0.0
 40
12.50000000000045
100
AcDbArc
 50
180.0
 51
270.0
  0
LINE
  5
89
330
1F
100
AcDbEntity
  8
0
  6
Continuous
 62
     7
370
    25
100
AcDbLine
 10
3082.1366595913
 20
7048.0690658978
 30
0.0
 11
3082.1366595913
 21
7013.0690658978
 31
0.0
  0
LINE
  5
8A
330
1F
100
AcDbEntity
  8
0
  6
Continuous
 62
     7
370
    25
100
AcDbLine
 10
3122.6366595913
 20
7013.0690658978
 30
0.0
 11
3122.6366595913
 21
7048.0690658978
 31
0.0
  0
LINE
  5
8B
330
1F
100
AcDbEntity
  8
0
  6
Continuous
 62
     7
370
    25
100
AcDbLine
 10
3234.6366595913
 20
7048.0690658978
 30
0.0
 11
3234.6366595913
 21
7013.0690658978
 31
0.0
  0
LINE
  5
8C
330
1F
100
AcDbEntity
  8
0
  6
Continuous
 62
     7
370
    25
100
AcDbLine
 10
3275.1366595913
 20
7013.0690658978
 30
0.0
 11
3275.1366595913
 21
7048.0690658978
 31
0.0
  0
LINE
  5
8D
330
1F
100
AcDbEntity
  8
0
  6
Continuous
 62
     7
370
    25
100
AcDbLine
 10
3041.5537863213
 20
6805.4763105673
 30
0.0
 11
3041.5009176413
 21
6806.648499611
 31
0.0
  0
LINE
  5
8E
330
1F
100
AcDbEntity
  8
0
  6
Continuous
 62
     7
370
    25
100
AcDbLine
 10
3046.1516008694
 20
6802.0820036287
 30
0.0
 11
3046.6888176475
 21
6799.6927727156
 31
0.0
  0
SPLINE
  5
8F
330
1F
100
AcDbEntity
  8
0
  6
Continuous
 62
     7
370
    25
100
AcDbSpline
210
0.0
220
0.0
230
1.0
 70
     8
 71
     3
 72
     9
 73
     5
 74
     0
 42
0.00000001
 43
0.00000001
 40
0.0
 40
0.0
 40
0.0
 40
0.0
 40
0.9586942502819371
 40
0.9999999999999999
 40
0.9999999999999999
 40
0.9999999999999999
 40
0.9999999999999999
 10
3051.349501715625
 20
6776.511495412278
 30
0.0
 10
3051.539073022392
 20
6775.364559908488
 30
0.0
 10
3051.736812089578
 20
6774.168208200474
 30
0.0
 10
3051.800413132969
 20
6773.366219191391
 30
0.0
 10
3051.803040221748
 20
6773.333092434105
 30
0.0
  0
SPLINE
  5
90
330
1F
100
AcDbEntity
  8
0
  6
Continuous
 62
     7
370
    25
100
AcDbSpline
210
0.0
220
0.0
230
1.0
 70
     8
 71
     3
 72
     9
 73
     5
 74
     0
 42
0.00000001
 43
0.00000001
 40
0.0
 40
0.0
 40
0.0
 40
0.0
 40
0.2031818342672125
 40
1.0
 40
1.0
 40
1.0
 40
1.0
 10
3048.773807095357
 20
6767.806082981084
 30
0.0
 10
3048.774838011687
 20
6767.894640758652
 30
0.0
 10
3048.779911872417
 20
6768.330495557813
 30
0.0
 10
3048.609589445219
 20
6768.78980050778
 30
0.0
 10
3048.473873441195
 20
6769.155783035526
 30
0.0
  0
SPLINE
  5
91
330
1F
100
AcDbEntity
  8
0
  6
Continuous
 62
     7
370
    25
100
AcDbSpline
210
0.0
220
0.0
230
1.0
 70
     8
 71
     3
 72
     9
 73
     5
 74
     0
 42
0.00000001
 43
0.00000001
 40
0.0
 40
0.0
 40
0.0
 40
0.0
 40
0.8344886817465366
 40
1.0
 40
1.0
 40
1.0
 40
1.0
 10
3029.237084204591
 20
6810.986536301282
 30
0.0
 10
3029.101062736097
 20
6811.260199871173
 30
0.0
 10
3028.938062959746
 20
6811.588141490846
 30
0.0
 10
3028.776651738931
 20
6811.978143772109
 30
0.0
 10
3028.749936354993
 20
6812.042693563802
 30
0.0
  0
LINE
  5
92
330
1F
100
AcDbEntity
  8
0
  6
Continuous
 62
     7
370
    25
100
AcDbLine
 10
3014.3091258958
 20
6809.9875231328
 30
0.0
 11
3014.3018059554
 21
6811.0007427706
 31
0.0
  0
LINE
  5
93
330
1F
100
AcDbEntity
  8
0
  6
Continuous
 62
     7
370
    25
100
AcDbLine
 10
3005.3463433019
 20
6806.0878119927
 30
0.0
 11
3005.3527711911
 21
6804.8477084309
 31
0.0
  0
LINE
  5
94
330
1F
100
AcDbEntity
  8
0
  6
Continuous
 62
     7
370
    25
100
AcDbLine
 10
3018.8997920251
 20
6812.2441124519
 30
0.0
 11
3019.2750064686
 21
6811.3303774285
 31
0.0
  0
SPLINE
  5
95
330
1F
100
AcDbEntity
  8
0
  6
Continuous
 62
     7
370
    25
100
AcDbSpline
210
0.0
220
0.0
230
1.0
 70
     8
 71
     3
 72
     9
 73
     5
 74
     0
 42
0.00000001
 43
0.00000001
 40
0.0
 40
0.0
 40
0.0
 40
0.0
 40
0.082668115202844
 40
0.9999999999999999
 40
0.9999999999999999
 40
0.9999999999999999
 40
0.9999999999999999
 10
3037.807199650759
 20
6758.326390558731
 30
0.0
 10
3037.788703127682
 20
6758.287996395086
 30
0.0
 10
3037.564958785232
 20
6757.823559005283
 30
0.0
 10
3037.186333345968
 20
6757.119880322258
 30
0.0
 10
3036.839008158135
 20
6756.474373429667
 30
0.0
  0
CIRCLE
  5
96
330
1F
100
AcDbEntity
  8
0
  6
Continuous
 62
     7
370
    25
100
AcDbCircle
 10
2973.6366595913
 20
7033.0690658978
 30
0.0
 40
13.49999999999909
  0
CIRCLE
  5
97
330
1F
100
AcDbEntity
  8
0
  6
Continuous
 62
     7
370
    25
100
AcDbCircle
 10
2973.6366595913
 20
6693.0690658978
 30
0.0
 40
13.5
  0
CIRCLE
  5
98
330
1F
100
AcDbEntity
  8
0
  6
Continuous
 62
     7
370
    25
100
AcDbCircle
 10
3323.6366595913
 20
7033.0690658978
 30
0.0
 40
13.49999999999909
  0
CIRCLE
  5
99
330
1F
100
AcDbEntity
  8
0
  6
Continuous
 62
     7
370
    25
100
AcDbCircle
 10
3323.6366595913
 20
6693.0690658978
 30
0.0
 40
13.5
  0
ARC
  5
9A
330
1F
100
AcDbEntity
  8
0
  6
Continuous
 62
     7
370
    25
100
AcDbCircle
 10
3152.1366595913
 20
6660.5690658978
 30
0.0
 40
2.500000000000909
100
AcDbArc
 50
0.0
 51
90.0
  0
LINE
  5
9B
330
1F
100
AcDbEntity
  8
0
  6
Continuous
 62
     7
370
    25
100
AcDbLine
 10
3154.6366595913
 20
6657.100329473
 30
0.0
 11
3154.6366595913
 21
6660.5690658978
 31
0.0
  0
ARC
  5
9C
330
1F
100
AcDbEntity
  8
0
  6
Continuous
 62
     7
370
    25
100
AcDbCircle
 10
3152.1366595913
 20
6657.100329473
 30
0.0
 40
2.5
100
AcDbArc
 50
295.9444797724
 51
0.0
  0
ARC
  5
9D
330
1F
100
AcDbEntity
  8
0
  6
Continuous
 62
     7
370
    25
100
AcDbCircle
 10
3134.6366595913
 20
6693.0690658978
 30
0.0
 40
42.50000000000064
100
AcDbArc
 50
287.1046351766
 51
295.9444797724
  0
LWPOLYLINE
  5
9E
330
1F
100
AcDbEntity
  8
0
  6
Continuous
 62
     7
370
    25
100
AcDbPolyline
 90
        3
 70
   128
 43
0.0
 10
3121.1206142773
 20
6652.7755612219
 10
3121.3556499452
 20
6652.6974820451
 10
3122.1366595913
 20
6652.4488738746
  0
ARC
  5
9F
330
1F
100
AcDbEntity
  8
0
  6
Continuous
 62
     7
370
    25
100
AcDbCircle
 10
3017.1366595913
 20
6657.100329473
 30
0.0
 40
2.500000000000227
100
AcDbArc
 50
180.0
 51
244.0555202276
  0
ARC
  5
A0
330
1F
100
AcDbEntity
  8
0
  6
Continuous
 62
     7
370
    25
100
AcDbCircle
 10
3052.1366595913
 20
6657.100329473
 30
0.0
 40
2.500000000000426
100
AcDbArc
 50
295.9444797724
 51
0.0
  0
LINE
  5
A1
330
1F
100
AcDbEntity
  8
0
  6
Continuous
 62
     7
370
    25
100
AcDbLine
 10
3014.6366595913
 20
6660.5690658978
 30
0.0
 11
3014.6366595913
 21
6657.100329473
 31
0.0
  0
LINE
  5
A2
330
1F
100
AcDbEntity
  8
0
  6
Continuous
 62
     7
370
    25
100
AcDbLine
 10
3054.6366595913
 20
6657.100329473
 30
0.0
 11
3054.6366595913
 21
6660.5690658978
 31
0.0
  0
ARC
  5
A3
330
1F
100
AcDbEntity
  8
0
  6
Continuous
 62
     7
370
    25
100
AcDbCircle
 10
3017.1366595913
 20
6660.5690658978
 30
0.0
 40
2.500000000000909
100
AcDbArc
 50
90.0
 51
180.0
  0
ARC
  5
A4
330
1F
100
AcDbEntity
  8
0
  6
Continuous
 62
     7
370
    25
100
AcDbCircle
 10
3052.1366595913
 20
6660.5690658978
 30
0.0
 40
2.500000000000909
100
AcDbArc
 50
0.0
 51
90.0
  0
ARC
  5
A5
330
1F
100
AcDbEntity
  8
0
  6
Continuous
 62
     7
370
    25
100
AcDbCircle
 10
3034.6366595913
 20
6693.0690658978
 30
0.0
 40
42.5000000000007
100
AcDbArc
 50
287.1046351766
 51
295.9444797724
  0
ARC
  5
A6
330
1F
100
AcDbEntity
  8
0
  6
Continuous
 62
     7
370
    25
100
AcDbCircle
 10
3034.6366595913
 20
6693.0690658978
 30
0.0
 40
42.5000000000009
100
AcDbArc
 50
244.0555202276
 51
252.8953648234
  0
LINE
  5
A7
330
1F
100
AcDbEntity
  8
0
  6
Continuous
 62
     7
370
    25
100
AcDbLine
 10
3048.0888856086
 20
6647.1168398805
 30
0.0
 11
3050.1366595913
 21
6645.0690658978
 31
0.0
  0
LINE
  5
A8
330
1F
100
AcDbEntity
  8
0
  6
Continuous
 62
     7
370
    25
100
AcDbLine
 10
3119.1366595913
 20
6645.0690658978
 30
0.0
 11
3121.2337849027
 21
6647.1661912092
 31
0.0
  0
LINE
  5
A9
330
1F
100
AcDbEntity
  8
0
  6
Continuous
 62
     7
370
    25
100
AcDbLine
 10
3279.0550393934
 20
7908.3212481712
 30
0.0
 11
3279.1437614978
 21
7907.4480699764
 31
0.0
  0
LINE
  5
AA
330
1F
100
AcDbEntity
  8
0
  6
Continuous
 62
     7
370
    25
100
AcDbLine
 10
3279.5755854871
 20
7903.1981787691
 30
0.0
 11
3279.811978734
 21
7900.8716623952
 31
0.0
  0
LINE
  5
AB
330
1F
100
AcDbEntity
  8
0
  6
Continuous
 62
     7
370
    25
100
AcDbLine
 10
3388.2055243232
 20
7906.0041072671
 30
0.0
 11
3388.22862545
 21
7908.3364440793
 31
0.0
  0
LINE
  5
AC
330
1F
100
AcDbEntity
  8
0
  6
Continuous
 62
     7
370
    25
100
AcDbLine
 10
3326.5698530857
 20
8098.2636448267
 30
0.0
 11
3326.6602807418
 21
8081.819023963
 31
0.0
  0
LINE
  5
AD
330
1F
100
AcDbEntity
  8
0
  6
Continuous
 62
     7
370
    25
100
AcDbLine
 10
3351.6599027739
 20
8081.956494887
 30
0.0
 11
3351.5694751177
 21
8098.4011157507
 31
0.0
  0
SPLINE
  5
AE
330
1F
100
AcDbEntity
  8
0
  6
Continuous
 62
     7
370
    25
100
AcDbSpline
210
0.0
220
0.0
230
1.0
 70
     8
 71
     3
 72
    34
 73
    30
 74
     0
 42
0.00000001
 43
0.00000001
 40
0.0
 40
0.0
 40
0.0
 40
0.0
 40
0.0561040108537408
 40
0.1048112839445328
 40
0.1463722402561803
 40
0.1810883739923203
 40
0.2096343229057546
 40
0.2337751007248797
 40
0.2574708470726121
 40
0.2819120827623097
 40
0.3073710213498815
 40
0.3341170396287896
 40
0.3620528903550137
 40
0.3900573159665041
 40
0.4455347096490644
 40
0.4999977761072947
 40
0.5556523640963003
 40
0.6138578302437804
 40
0.6434495589829414
 40
0.6717235664828591
 40
0.723854173775646
 40
0.7477810653920275
 40
0.7696810892045576
 40
0.7899683538730962
 40
0.8108113216937713
 40
0.8414316767336254
 40
0.8834738303581192
 40
0.9365469159029433
 40
1.0
 40
1.0
 40
1.0
 40
1.0
 10
3460.078043720918
 20
8173.527118244293
 30
0.0
 10
3459.829677279855
 20
8177.892661382673
 30
0.0
 10
3459.365688962791
 20
8186.048195621424
 30
0.0
 10
3458.359314357972
 20
8196.928746602722
 30
0.0
 10
3456.982706202014
 20
8206.760851153691
 30
0.0
 10
3454.994459934473
 20
8216.165675291333
 30
0.0
 10
3452.2112230604
 20
8225.580140705275
 30
0.0
 10
3447.887011250466
 20
8236.092329165245
 30
0.0
 10
3442.498327810777
 20
8246.075087677185
 30
0.0
 10
3435.903880802256
 20
8255.792992032522
 30
0.0
 10
3427.887451318006
 20
8265.28077436193
 30
0.0
 10
3418.431753548007
 20
8274.275145574416
 30
0.0
 10
3407.746107922406
 20
8282.393425702643
 30
0.0
 10
3392.2303644988
 20
8291.688793696949
 30
0.0
 10
3371.273699763347
 20
8300.01087853229
 30
0.0
 10
3344.605320394468
 20
8304.538516058095
 30
0.0
 10
3317.114487935009
 20
8303.357165716434
 30
0.0
 10
3294.414666845567
 20
8297.298987775484
 30
0.0
 10
3277.253132683036
 20
8289.438740011941
 30
0.0
 10
3261.932572001787
 20
8280.22194745167
 30
0.0
 10
3248.92623751874
 20
8269.252451529112
 30
0.0
 10
3238.607503579079
 20
8257.395092278606
 30
0.0
 10
3232.604166232421
 20
8249.050846186268
 30
0.0
 10
3227.826938313507
 20
8241.098192861096
 30
0.0
 10
3223.641802588456
 20
8232.744242462288
 30
0.0
 10
3220.322050967414
 20
8224.603485925783
 30
0.0
 10
3216.919922572091
 20
8214.101967470631
 30
0.0
 10
3213.7125018547
 20
8200.820041687197
 30
0.0
 10
3212.051905346746
 20
8189.776214621677
 30
0.0
 10
3211.147645211926
 20
8183.762416264662
 30
0.0
  0
SPLINE
  5
AF
330
1F
100
AcDbEntity
  8
0
  6
Continuous
 62
     7
370
    25
100
AcDbSpline
210
0.0
220
0.0
230
1.0
 70
     8
 71
     3
 72
    26
 73
    22
 74
     0
 42
0.00000001
 43
0.00000001
 40
0.0
 40
0.0
 40
0.0
 40
0.0
 40
0.0525326841987001
 40
0.0982263156213108
 40
0.1372670344237547
 40
0.1697884042709648
 40
0.1958659067953336
 40
0.2155257075677559
 40
0.2310611096128759
 40
0.2481129367492106
 40
0.2711857949399821
 40
0.3003233467860425
 40
0.3355785624299046
 40
0.3883147835074849
 40
0.4506764126168115
 40
0.5224187608841844
 40
0.6030003962557623
 40
0.6920313830787245
 40
0.7888810000255423
 40
0.8922789480555556
 40
1.0
 40
1.0
 40
1.0
 40
1.0
 10
3211.179430326765
 20
8183.996839486039
 30
0.0
 10
3210.713851669641
 20
8180.359058445219
 30
0.0
 10
3209.843306468711
 20
8173.557086794105
 30
0.0
 10
3208.675044267471
 20
8161.829485142038
 30
0.0
 10
3207.707884657928
 20
8150.666608847486
 30
0.0
 10
3206.928815479489
 20
8140.500794358995
 30
0.0
 10
3206.324018214
 20
8131.84863760746
 30
0.0
 10
3205.862690563734
 20
8124.799742003634
 30
0.0
 10
3205.484801737985
 20
8118.75172676755
 30
0.0
 10
3205.096148569467
 20
8112.285131146718
 30
0.0
 10
3204.617873996806
 20
8103.96981311111
 30
0.0
 10
3204.024456471338
 20
8093.090571790985
 30
0.0
 10
3203.243789732323
 20
8077.912470844508
 30
0.0
 10
3202.264655250622
 20
8057.476431626126
 30
0.0
 10
3201.080791376124
 20
8030.782194538654
 30
0.0
 10
3199.757068779034
 20
7998.701268607361
 30
0.0
 10
3198.303139792942
 20
7961.210425947008
 30
0.0
 10
3196.735904729473
 20
7918.523064314984
 30
0.0
 10
3195.066218746826
 20
7871.111104759691
 30
0.0
 10
3193.309697493857
 20
7819.870766113454
 30
0.0
 10
3192.08004935588
 20
7784.365423446385
 30
0.0
 10
3191.452635475745
 20
7766.249228967407
 30
0.0
  0
SPLINE
  5
B0
330
1F
100
AcDbEntity
  8
0
  6
Continuous
 62
     7
370
    25
100
AcDbSpline
210
0.0
220
0.0
230
1.0
 70
     8
 71
     3
 72
    25
 73
    21
 74
     0
 42
0.00000001
 43
0.00000001
 40
0.0
 40
0.0
 40
0.0
 40
0.0
 40
0.0234300151030023
 40
0.0498132437660271
 40
0.074016934897424
 40
0.0977558804603607
 40
0.1381958376235108
 40
0.1760397516339317
 40
0.2116957713310613
 40
0.2489414520492311
 40
0.2983234223557428
 40
0.3607708049397959
 40
0.4361888852661436
 40
0.524300143733142
 40
0.589902313822083
 40
0.660847908257768
 40
0.7370989567684182
 40
0.8188034946551938
 40
0.906309910860828
 40
1.0
 40
1.0
 40
1.0
 40
1.0
 10
3467.35126145598
 20
7911.216883322111
 30
0.0
 10
3467.273848306915
 20
7913.521910524319
 30
0.0
 10
3467.109264543391
 20
7918.422499849851
 30
0.0
 10
3466.9225589376
 20
7924.243548440007
 30
0.0
 10
3466.707476964908
 20
7931.450125745488
 30
0.0
 10
3466.441803438794
 20
7941.074350116598
 30
0.0
 10
3466.133390046117
 20
7953.15594395629
 30
0.0
 10
3465.81892004851
 20
7966.786352799404
 30
0.0
 10
3465.490588997432
 20
7979.73347546982
 30
0.0
 10
3465.158299655519
 20
7992.794862908678
 30
0.0
 10
3464.758193172573
 20
8008.747907811124
 30
0.0
 10
3464.270274359277
 20
8028.291009553511
 30
0.0
 10
3463.699652351136
 20
8051.185069952844
 30
0.0
 10
3463.142084232163
 20
8073.330487900702
 30
0.0
 10
3462.614132794649
 20
8093.810374196036
 30
0.0
 10
3462.129933176289
 20
8111.977700488939
 30
0.0
 10
3461.628226254691
 20
8129.841466455227
 30
0.0
 10
3461.115490227565
 20
8146.575675320171
 30
0.0
 10
3460.593568129656
 20
8161.773510729315
 30
0.0
 10
3460.25765781689
 20
8169.438515352464
 30
0.0
 10
3460.083970873613
 20
8173.40180904308
 30
0.0
  0
LINE
  5
B1
330
1F
100
AcDbEntity
  8
0
  6
Continuous
 62
     7
370
    25
100
AcDbLine
 10
3377.4660673233
 20
8125.4683590948
 30
0.0
 11
3377.4402308501
 21
8130.1668221987
 31
0.0
  0
LINE
  5
B2
330
1F
100
AcDbEntity
  8
0
  6
Continuous
 62
     7
370
    25
100
AcDbLine
 10
3302.4506612427
 20
8128.0638068095
 30
0.0
 11
3302.4672012271
 21
8125.0559463228
 31
0.0
  0
LINE
  5
B3
330
1F
100
AcDbEntity
  8
0
  6
Continuous
 62
     7
370
    25
100
AcDbLine
 10
4048.711443858
 20
7021.0961252424
 30
0.0
 11
3531.211443858
 21
7021.0961252424
 31
0.0
  0
LINE
  5
B4
330
1F
100
AcDbEntity
  8
0
  6
Continuous
 62
     7
370
    25
100
AcDbLine
 10
4041.211443858
 20
6398.5961252424
 30
0.0
 11
3538.711443858
 21
6398.5961252424
 31
0.0
  0
LINE
  5
B5
330
1F
100
AcDbEntity
  8
0
  6
Continuous
 62
     7
370
    25
100
AcDbLine
 10
4052.461443858
 20
7106.0961252424
 30
0.0
 11
3527.461443858
 21
7106.0961252424
 31
0.0
  0
LINE
  5
B6
330
1F
100
AcDbEntity
  8
0
  6
Continuous
 62
     7
370
    25
100
AcDbLine
 10
3527.461443858
 20
7106.0961252424
 30
0.0
 11
3527.461443858
 21
7113.5961252424
 31
0.0
  0
LINE
  5
B7
330
1F
100
AcDbEntity
  8
0
  6
Continuous
 62
     7
370
    25
100
AcDbLine
 10
4052.461443858
 20
7113.5961252424
 30
0.0
 11
3527.461443858
 21
7113.5961252424
 31
0.0
  0
LINE
  5
B8
330
1F
100
AcDbEntity
  8
0
  6
Continuous
 62
     7
370
    25
100
AcDbLine
 10
4052.461443858
 20
7113.5961252424
 30
0.0
 11
4052.461443858
 21
7106.0961252424
 31
0.0
  0
LINE
  5
B9
330
1F
100
AcDbEntity
  8
0
  6
Continuous
 62
     7
370
    25
100
AcDbLine
 10
3527.461443858
 20
7102.4131252424
 30
0.0
 11
3527.461443858
 21
7106.0961252424
 31
0.0
  0
LINE
  5
BA
330
1F
100
AcDbEntity
  8
0
  6
Continuous
 62
     7
370
    25
100
AcDbLine
 10
4052.461443858
 20
7102.4131252424
 30
0.0
 11
4052.461443858
 21
7106.0961252424
 31
0.0
  0
LINE
  5
BB
330
1F
100
AcDbEntity
  8
0
  6
Continuous
 62
     7
370
    25
100
AcDbLine
 10
3527.461443858
 20
7014.0447489218
 30
0.0
 11
3527.461443858
 21
7102.4131252424
 31
0.0
  0
LINE
  5
BC
330
1F
100
AcDbEntity
  8
0
  6
Continuous
 62
     7
370
    25
100
AcDbLine
 10
4052.461443858
 20
7014.0447489218
 30
0.0
 11
4052.461443858
 21
7102.4131252424
 31
0.0
  0
LINE
  5
BD
330
1F
100
AcDbEntity
  8
0
  6
Continuous
 62
     7
370
    25
100
AcDbLine
 10
3065.4867062493
 20
6868.224822039
 30
0.0
 11
3063.4942409209
 21
6865.1185244726
 31
0.0
  0
LINE
  5
BE
330
1F
100
AcDbEntity
  8
0
  6
Continuous
 62
     7
370
    25
100
AcDbLine
 10
3064.7764908722
 20
6879.5210682043
 30
0.0
 11
3067.0821302684
 21
6875.0583247891
 31
0.0
  0
LINE
  5
BF
330
1F
100
AcDbEntity
  8
0
  6
Continuous
 62
     7
370
    25
100
AcDbLine
 10
3055.2790782617
 20
6881.019607323
 30
0.0
 11
3057.2936247653
 21
6880.9254058348
 31
0.0
  0
LINE
  5
C0
330
1F
100
AcDbEntity
  8
0
  6
Continuous
 62
     7
370
    25
100
AcDbLine
 10
3053.2866129333
 20
6877.9133097566
 30
0.0
 11
3055.2790782617
 21
6881.019607323
 31
0.0
  0
LINE
  5
C1
330
1F
100
AcDbEntity
  8
0
  6
Continuous
 62
     7
370
    25
100
AcDbLine
 10
3053.9968283104
 20
6866.6170635914
 30
0.0
 11
3051.6911889142
 21
6871.0798070065
 31
0.0
  0
LINE
  5
C2
330
1F
100
AcDbEntity
  8
0
  6
Continuous
 62
     7
370
    25
100
AcDbLine
 10
3063.4942409209
 20
6865.1185244726
 30
0.0
 11
3061.4796944173
 21
6865.2127259609
 31
0.0
  0
LINE
  5
C3
330
1F
100
AcDbEntity
  8
0
  6
Continuous
 62
     7
370
    25
100
AcDbLine
 10
3303.9867062493
 20
6868.224822039
 30
0.0
 11
3301.9942409209
 21
6865.1185244726
 31
0.0
  0
LINE
  5
C4
330
1F
100
AcDbEntity
  8
0
  6
Continuous
 62
     7
370
    25
100
AcDbLine
 10
3303.2764908722
 20
6879.5210682043
 30
0.0
 11
3305.5821302684
 21
6875.0583247891
 31
0.0
  0
LINE
  5
C5
330
1F
100
AcDbEntity
  8
0
  6
Continuous
 62
     7
370
    25
100
AcDbLine
 10
3293.7790782617
 20
6881.019607323
 30
0.0
 11
3295.7936247654
 21
6880.9254058348
 31
0.0
  0
LINE
  5
C6
330
1F
100
AcDbEntity
  8
0
  6
Continuous
 62
     7
370
    25
100
AcDbLine
 10
3291.7866129333
 20
6877.9133097566
 30
0.0
 11
3293.7790782617
 21
6881.019607323
 31
0.0
  0
LINE
  5
C7
330
1F
100
AcDbEntity
  8
0
  6
Continuous
 62
     7
370
    25
100
AcDbLine
 10
3292.4968283104
 20
6866.6170635914
 30
0.0
 11
3290.1911889142
 21
6871.0798070065
 31
0.0
  0
LINE
  5
C8
330
1F
100
AcDbEntity
  8
0
  6
Continuous
 62
     7
370
    25
100
AcDbLine
 10
3301.9942409209
 20
6865.1185244726
 30
0.0
 11
3299.9796944173
 21
6865.2127259609
 31
0.0
  0
ARC
  5
C9
330
1F
100
AcDbEntity
  8
0
  6
Continuous
 62
     7
370
    25
100
AcDbCircle
 10
3297.8866595913
 20
6873.0690658978
 30
0.0
 40
21.60004918221478
100
AcDbArc
 50
247.4623672639
 51
69.6825406689
  0
ARC
  5
CA
330
1F
100
AcDbEntity
  8
0
  6
Continuous
 62
     7
370
    25
100
AcDbCircle
 10
3059.3866595913
 20
6873.0690658978
 30
0.0
 40
21.60004918221614
100
AcDbArc
 50
110.317459331
 51
292.5376327361
  0
CIRCLE
  5
CB
330
1F
100
AcDbEntity
  8
0
  6
Continuous
 62
     7
370
    25
100
AcDbCircle
 10
3059.3866595913
 20
6873.0690658978
 30
0.0
 40
18.820754716982
  0
LINE
  5
CC
330
1F
100
AcDbEntity
  8
0
  6
Continuous
 62
     7
370
    25
100
AcDbLine
 10
3071.2459041479
 20
6877.7443539689
 30
0.0
 11
3068.535466847
 21
6881.9459643313
 31
0.0
  0
LINE
  5
CD
330
1F
100
AcDbEntity
  8
0
  6
Continuous
 62
     7
370
    25
100
AcDbLine
 10
3068.535466847
 20
6881.9459643313
 30
0.0
 11
3060.1322461221
 21
6876.5250897295
 31
0.0
  0
LINE
  5
CE
330
1F
100
AcDbEntity
  8
0
  6
Continuous
 62
     7
370
    25
100
AcDbLine
 10
3060.1322461221
 20
6876.5250897295
 30
0.0
 11
3054.7113715203
 21
6884.9283104544
 31
0.0
  0
LINE
  5
CF
330
1F
100
AcDbEntity
  8
0
  6
Continuous
 62
     7
370
    25
100
AcDbLine
 10
3054.7113715203
 20
6884.9283104544
 30
0.0
 11
3050.5097611578
 21
6882.2178731535
 31
0.0
  0
LINE
  5
D0
330
1F
100
AcDbEntity
  8
0
  6
Continuous
 62
     7
370
    25
100
AcDbLine
 10
3050.5097611578
 20
6882.2178731535
 30
0.0
 11
3055.9306357596
 21
6873.8146524286
 31
0.0
  0
LINE
  5
D1
330
1F
100
AcDbEntity
  8
0
  6
Continuous
 62
     7
370
    25
100
AcDbLine
 10
3055.9306357596
 20
6873.8146524286
 30
0.0
 11
3047.5274150347
 21
6868.3937778268
 31
0.0
  0
LINE
  5
D2
330
1F
100
AcDbEntity
  8
0
  6
Continuous
 62
     7
370
    25
100
AcDbLine
 10
3047.5274150347
 20
6868.3937778268
 30
0.0
 11
3050.2378523356
 21
6864.1921674643
 31
0.0
  0
LINE
  5
D3
330
1F
100
AcDbEntity
  8
0
  6
Continuous
 62
     7
370
    25
100
AcDbLine
 10
3050.2378523356
 20
6864.1921674643
 30
0.0
 11
3058.6410730605
 21
6869.6130420661
 31
0.0
  0
LINE
  5
D4
330
1F
100
AcDbEntity
  8
0
  6
Continuous
 62
     7
370
    25
100
AcDbLine
 10
3058.6410730605
 20
6869.6130420661
 30
0.0
 11
3064.0619476623
 21
6861.2098213412
 31
0.0
  0
LINE
  5
D5
330
1F
100
AcDbEntity
  8
0
  6
Continuous
 62
     7
370
    25
100
AcDbLine
 10
3064.0619476623
 20
6861.2098213412
 30
0.0
 11
3068.2635580248
 21
6863.9202586421
 31
0.0
  0
LINE
  5
D6
330
1F
100
AcDbEntity
  8
0
  6
Continuous
 62
     7
370
    25
100
AcDbLine
 10
3068.2635580248
 20
6863.9202586421
 30
0.0
 11
3062.842683423
 21
6872.323479367
 31
0.0
  0
LINE
  5
D7
330
1F
100
AcDbEntity
  8
0
  6
Continuous
 62
     7
370
    25
100
AcDbLine
 10
3062.842683423
 20
6872.323479367
 30
0.0
 11
3071.2459041479
 21
6877.7443539689
 31
0.0
  0
CIRCLE
  5
D8
330
1F
100
AcDbEntity
  8
0
  6
Continuous
 62
     7
370
    25
100
AcDbCircle
 10
3059.3866595913
 20
6873.0690658978
 30
0.0
 40
20.00000000000081
  0
CIRCLE
  5
D9
330
1F
100
AcDbEntity
  8
0
  6
Continuous
 62
     7
370
    25
100
AcDbCircle
 10
3297.8866595913
 20
6873.0690658978
 30
0.0
 40
18.82075471698149
  0
LINE
  5
DA
330
1F
100
AcDbEntity
  8
0
  6
Continuous
 62
     7
370
    25
100
AcDbLine
 10
3309.7459041479
 20
6877.7443539689
 30
0.0
 11
3307.035466847
 21
6881.9459643313
 31
0.0
  0
LINE
  5
DB
330
1F
100
AcDbEntity
  8
0
  6
Continuous
 62
     7
370
    25
100
AcDbLine
 10
3307.035466847
 20
6881.9459643313
 30
0.0
 11
3298.6322461221
 21
6876.5250897295
 31
0.0
  0
LINE
  5
DC
330
1F
100
AcDbEntity
  8
0
  6
Continuous
 62
     7
370
    25
100
AcDbLine
 10
3298.6322461221
 20
6876.5250897295
 30
0.0
 11
3293.2113715203
 21
6884.9283104544
 31
0.0
  0
LINE
  5
DD
330
1F
100
AcDbEntity
  8
0
  6
Continuous
 62
     7
370
    25
100
AcDbLine
 10
3293.2113715203
 20
6884.9283104544
 30
0.0
 11
3289.0097611578
 21
6882.2178731535
 31
0.0
  0
LINE
  5
DE
330
1F
100
AcDbEntity
  8
0
  6
Continuous
 62
     7
370
    25
100
AcDbLine
 10
3289.0097611578
 20
6882.2178731535
 30
0.0
 11
3294.4306357596
 21
6873.8146524286
 31
0.0
  0
LINE
  5
DF
330
1F
100
AcDbEntity
  8
0
  6
Continuous
 62
     7
370
    25
100
AcDbLine
 10
3294.4306357596
 20
6873.8146524286
 30
0.0
 11
3286.0274150347
 21
6868.3937778268
 31
0.0
  0
LINE
  5
E0
330
1F
100
AcDbEntity
  8
0
  6
Continuous
 62
     7
370
    25
100
AcDbLine
 10
3286.0274150347
 20
6868.3937778268
 30
0.0
 11
3288.7378523356
 21
6864.1921674643
 31
0.0
  0
LINE
  5
E1
330
1F
100
AcDbEntity
  8
0
  6
Continuous
 62
     7
370
    25
100
AcDbLine
 10
3288.7378523356
 20
6864.1921674643
 30
0.0
 11
3297.1410730605
 21
6869.6130420661
 31
0.0
  0
LINE
  5
E2
330
1F
100
AcDbEntity
  8
0
  6
Continuous
 62
     7
370
    25
100
AcDbLine
 10
3297.1410730605
 20
6869.6130420661
 30
0.0
 11
3302.5619476623
 21
6861.2098213412
 31
0.0
  0
LINE
  5
E3
330
1F
100
AcDbEntity
  8
0
  6
Continuous
 62
     7
370
    25
100
AcDbLine
 10
3302.5619476623
 20
6861.2098213412
 30
0.0
 11
3306.7635580248
 21
6863.9202586421
 31
0.0
  0
LINE
  5
E4
330
1F
100
AcDbEntity
  8
0
  6
Continuous
 62
     7
370
    25
100
AcDbLine
 10
3306.7635580248
 20
6863.9202586421
 30
0.0
 11
3301.342683423
 21
6872.323479367
 31
0.0
  0
LINE
  5
E5
330
1F
100
AcDbEntity
  8
0
  6
Continuous
 62
     7
370
    25
100
AcDbLine
 10
3301.342683423
 20
6872.323479367
 30
0.0
 11
3309.7459041479
 21
6877.7443539689
 31
0.0
  0
CIRCLE
  5
E6
330
1F
100
AcDbEntity
  8
0
  6
Continuous
 62
     7
370
    25
100
AcDbCircle
 10
3297.8866595913
 20
6873.0690658978
 30
0.0
 40
20.00000000000081
  0
LINE
  5
E7
330
1F
100
AcDbEntity
  8
0
  6
Continuous
 62
     7
370
    25
100
AcDbLine
 10
3082.1366595913
 20
7048.0690658978
 30
0.0
 11
3122.6366595913
 21
7048.0690658978
 31
0.0
  0
LINE
  5
E8
330
1F
100
AcDbEntity
  8
0
  6
Continuous
 62
     7
370
    25
100
AcDbLine
 10
3275.1366595913
 20
7048.0690658978
 30
0.0
 11
3234.6366595913
 21
7048.0690658978
 31
0.0
  0
LINE
  5
E9
330
1F
100
AcDbEntity
  8
0
  6
Continuous
 62
     7
370
    25
100
AcDbLine
 10
3318.8866595913
 20
6901.0690658978
 30
0.0
 11
3318.8866595913
 21
7013.0690658978
 31
0.0
  0
ARC
  5
EA
330
1F
100
AcDbEntity
  8
0
  6
Continuous
 62
     7
370
    25
100
AcDbCircle
 10
3297.8866595913
 20
6873.0690658978
 30
0.0
 40
35.00000000000138
100
AcDbArc
 50
273.3892739324
 51
53.1301023542
  0
ARC
  5
EB
330
1F
100
AcDbEntity
  8
0
  6
Continuous
 62
     7
370
    25
100
AcDbCircle
 10
3178.6366595913
 20
6873.0690658978
 30
0.0
 40
126.2500000000002
100
AcDbArc
 50
196.0659022549
 51
343.9340977451
  0
ARC
  5
EC
330
1F
100
AcDbEntity
  8
0
  6
Continuous
 62
     7
370
    25
100
AcDbCircle
 10
3059.3866595913
 20
6873.0690658978
 30
0.0
 40
35.00000000000053
100
AcDbArc
 50
126.8698976458
 51
266.6107260676
  0
LINE
  5
ED
330
1F
100
AcDbEntity
  8
0
  6
Continuous
 62
     7
370
    25
100
AcDbLine
 10
3038.3866595913
 20
7013.0690658978
 30
0.0
 11
3038.3866595913
 21
6901.0690658978
 31
0.0
  0
ARC
  5
EE
330
1F
100
AcDbEntity
  8
0
  6
Continuous
 62
     7
370
    25
100
AcDbCircle
 10
3308.8866595913
 20
7013.0690658978
 30
0.0
 40
10.0
100
AcDbArc
 50
0.0
 51
90.0
  0
ARC
  5
EF
330
1F
100
AcDbEntity
  8
0
  6
Continuous
 62
     7
370
    25
100
AcDbCircle
 10
3048.3866595913
 20
7013.0690658978
 30
0.0
 40
10.0
100
AcDbArc
 50
90.0
 51
180.0
  0
LINE
  5
F0
330
1F
100
AcDbEntity
  8
0
  6
Continuous
 62
     7
370
    25
100
AcDbLine
 10
3308.8866595913
 20
7023.0690658978
 30
0.0
 11
3275.1366595913
 21
7023.0690658978
 31
0.0
  0
LINE
  5
F1
330
1F
100
AcDbEntity
  8
0
  6
Continuous
 62
     7
370
    25
100
AcDbLine
 10
3234.6366595913
 20
7023.0690658978
 30
0.0
 11
3122.6366595913
 21
7023.0690658978
 31
0.0
  0
LINE
  5
F2
330
1F
100
AcDbEntity
  8
0
  6
Continuous
 62
     7
370
    25
100
AcDbLine
 10
3082.1366595913
 20
7023.0690658978
 30
0.0
 11
3048.3866595913
 21
7023.0690658978
 31
0.0
  0
CIRCLE
  5
F3
330
1F
100
AcDbEntity
  8
0
  6
Continuous
 62
     7
370
    25
100
AcDbCircle
 10
3178.6366595913
 20
6873.0690658978
 30
0.0
 40
30.0
  0
CIRCLE
  5
F4
330
1F
100
AcDbEntity
  8
0
  6
Continuous
 62
     7
370
    25
100
AcDbCircle
 10
3178.6366595913
 20
6873.0690658978
 30
0.0
 40
32.5
  0
LINE
  5
F5
330
1F
100
AcDbEntity
  8
0
  6
Continuous
 62
     7
370
    25
100
AcDbLine
 10
3173.6366595913
 20
7003.0690658978
 30
0.0
 11
3173.6366595913
 21
6905.1821473445
 31
0.0
  0
LINE
  5
F6
330
1F
100
AcDbEntity
  8
0
  6
Continuous
 62
     7
370
    25
100
AcDbLine
 10
3183.6366595913
 20
7003.0690658978
 30
0.0
 11
3173.6366595913
 21
7003.0690658978
 31
0.0
  0
LINE
  5
F7
330
1F
100
AcDbEntity
  8
0
  6
Continuous
 62
     7
370
    25
100
AcDbLine
 10
3183.6366595913
 20
6905.1821473445
 30
0.0
 11
3183.6366595913
 21
7003.0690658978
 31
0.0
  0
ARC
  5
F8
330
1F
100
AcDbEntity
  8
0
  6
Continuous
 62
     7
370
    25
100
AcDbCircle
 10
3178.6366595913
 20
6873.0690658978
 30
0.0
 40
112.75
100
AcDbArc
 50
190.1397370553
 51
349.8602629447
  0
ARC
  5
F9
330
1F
100
AcDbEntity
  8
0
  6
Continuous
 62
     7
370
    25
100
AcDbCircle
 10
3178.6366595913
 20
6873.0690658978
 30
0.0
 40
102.7500000000004
100
AcDbArc
 50
187.139377113
 51
352.860622887
  0
ARC
  5
FA
330
1F
100
AcDbEntity
  8
0
  6
Continuous
 62
     7
370
    25
100
AcDbCircle
 10
3071.8866595913
 20
6993.0690658978
 30
0.0
 40
10.0
100
AcDbArc
 50
90.0
 51
180.0
  0
LINE
  5
FB
330
1F
100
AcDbEntity
  8
0
  6
Continuous
 62
     7
370
    25
100
AcDbLine
 10
3061.8866595913
 20
6993.0690658978
 30
0.0
 11
3051.8866595913
 21
6993.0690658978
 31
0.0
  0
ARC
  5
FC
330
1F
100
AcDbEntity
  8
0
  6
Continuous
 62
     7
370
    25
100
AcDbCircle
 10
3071.8866595913
 20
6993.0690658978
 30
0.0
 40
20.0
100
AcDbArc
 50
90.0
 51
180.0
  0
LINE
  5
FD
330
1F
100
AcDbEntity
  8
0
  6
Continuous
 62
     7
370
    25
100
AcDbLine
 10
3071.8866595913
 20
7003.0690658978
 30
0.0
 11
3071.8866595913
 21
7013.0690658978
 31
0.0
  0
LINE
  5
FE
330
1F
100
AcDbEntity
  8
0
  6
Continuous
 62
     7
370
    25
100
AcDbLine
 10
3285.3866595913
 20
7003.0690658978
 30
0.0
 11
3183.6366595913
 21
7003.0690658978
 31
0.0
  0
LINE
  5
FF
330
1F
100
AcDbEntity
  8
0
  6
Continuous
 62
     7
370
    25
100
AcDbLine
 10
3173.6366595913
 20
7003.0690658978
 30
0.0
 11
3071.8866595913
 21
7003.0690658978
 31
0.0
  0
LINE
  5
100
330
1F
100
AcDbEntity
  8
0
  6
Continuous
 62
     7
370
    25
100
AcDbLine
 10
3071.8866595913
 20
7013.0690658978
 30
0.0
 11
3285.3866595913
 21
7013.0690658978
 31
0.0
  0
LINE
  5
101
330
1F
100
AcDbEntity
  8
0
  6
Continuous
 62
     7
370
    25
100
AcDbLine
 10
3285.3866595913
 20
7003.0690658978
 30
0.0
 11
3285.3866595913
 21
7013.0690658978
 31
0.0
  0
ARC
  5
102
330
1F
100
AcDbEntity
  8
0
  6
Continuous
 62
     7
370
    25
100
AcDbCircle
 10
3285.3866595913
 20
6993.0690658978
 30
0.0
 40
10.0
100
AcDbArc
 50
0.0
 51
90.0
  0
ARC
  5
103
330
1F
100
AcDbEntity
  8
0
  6
Continuous
 62
     7
370
    25
100
AcDbCircle
 10
3285.3866595913
 20
6993.0690658978
 30
0.0
 40
20.0
100
AcDbArc
 50
0.0
 51
90.0
  0
LINE
  5
104
330
1F
100
AcDbEntity
  8
0
  6
Continuous
 62
     7
370
    25
100
AcDbLine
 10
3295.3866595913
 20
6993.0690658978
 30
0.0
 11
3305.3866595913
 21
6993.0690658978
 31
0.0
  0
LINE
  5
105
330
1F
100
AcDbEntity
  8
0
  6
Continuous
 62
     7
370
    25
100
AcDbLine
 10
3295.3866595913
 20
6894.4232224019
 30
0.0
 11
3295.3866595913
 21
6993.0690658978
 31
0.0
  0
LINE
  5
106
330
1F
100
AcDbEntity
  8
0
  6
Continuous
 62
     7
370
    25
100
AcDbLine
 10
3061.8866595913
 20
6993.0690658978
 30
0.0
 11
3061.8866595913
 21
6894.4232224019
 31
0.0
  0
ARC
  5
107
330
1F
100
AcDbEntity
  8
0
  6
Continuous
 62
     7
370
    25
100
AcDbCircle
 10
3059.3866595913
 20
6873.0690658978
 30
0.0
 40
21.50000000000011
100
AcDbArc
 50
83.3225946728
 51
323.5615272161
  0
ARC
  5
108
330
1F
100
AcDbEntity
  8
0
  6
Continuous
 62
     7
370
    25
100
AcDbCircle
 10
3297.8866595913
 20
6873.0690658978
 30
0.0
 40
21.50000000000011
100
AcDbArc
 50
216.4384727839
 51
96.6774053272
  0
LINE
  5
109
330
1F
100
AcDbEntity
  8
0
  6
Continuous
 62
     7
370
    25
100
AcDbLine
 10
3051.8866595913
 20
6893.2185075774
 30
0.0
 11
3051.8866595913
 21
6993.0690658978
 31
0.0
  0
LINE
  5
10A
330
1F
100
AcDbEntity
  8
0
  6
Continuous
 62
     7
370
    25
100
AcDbLine
 10
3305.3866595913
 20
6993.0690658978
 30
0.0
 11
3305.3866595913
 21
6893.2185075774
 31
0.0
  0
CIRCLE
  5
10B
330
1F
100
AcDbEntity
  8
0
  6
Continuous
 62
     7
370
    25
100
AcDbCircle
 10
3023.6366595913
 20
6783.0690658978
 30
0.0
 40
29.00000000000004
  0
CIRCLE
  5
10C
330
1F
100
AcDbEntity
  8
0
  6
Continuous
 62
     7
370
    25
100
AcDbCircle
 10
3023.6366595913
 20
6783.0690658978
 30
0.0
 40
30.00000000000048
  0
CIRCLE
  5
10D
330
1F
100
AcDbEntity
  8
0
  6
Continuous
 62
     7
370
    25
100
AcDbCircle
 10
3023.6366595913
 20
6783.0690658978
 30
0.0
 40
44.50000000000011
  0
LINE
  5
10E
330
1F
100
AcDbEntity
  8
0
  6
Continuous
 62
     7
370
    25
100
AcDbLine
 10
2971.3866595913
 20
7041.8190658978
 30
0.0
 11
2975.8866595913
 21
7041.8190658978
 31
0.0
  0
LINE
  5
10F
330
1F
100
AcDbEntity
  8
0
  6
Continuous
 62
     7
370
    25
100
AcDbLine
 10
2971.3866595913
 20
7041.8190658978
 30
0.0
 11
2971.3866595913
 21
7035.3190658978
 31
0.0
  0
LINE
  5
110
330
1F
100
AcDbEntity
  8
0
  6
Continuous
 62
     7
370
    25
100
AcDbLine
 10
2964.8866595913
 20
7035.3190658978
 30
0.0
 11
2971.3866595913
 21
7035.3190658978
 31
0.0
  0
LINE
  5
111
330
1F
100
AcDbEntity
  8
0
  6
Continuous
 62
     7
370
    25
100
AcDbLine
 10
2964.8866595913
 20
7035.3190658978
 30
0.0
 11
2964.8866595913
 21
7030.8190658978
 31
0.0
  0
LINE
  5
112
330
1F
100
AcDbEntity
  8
0
  6
Continuous
 62
     7
370
    25
100
AcDbLine
 10
2964.8866595913
 20
7030.8190658978
 30
0.0
 11
2971.3866595913
 21
7030.8190658978
 31
0.0
  0
LINE
  5
113
330
1F
100
AcDbEntity
  8
0
  6
Continuous
 62
     7
370
    25
100
AcDbLine
 10
2971.3866595913
 20
7030.8190658978
 30
0.0
 11
2971.3866595913
 21
7024.3190658978
 31
0.0
  0
LINE
  5
114
330
1F
100
AcDbEntity
  8
0
  6
Continuous
 62
     7
370
    25
100
AcDbLine
 10
2971.3866595913
 20
7024.3190658978
 30
0.0
 11
2975.8866595913
 21
7024.3190658978
 31
0.0
  0
LINE
  5
115
330
1F
100
AcDbEntity
  8
0
  6
Continuous
 62
     7
370
    25
100
AcDbLine
 10
2975.8866595913
 20
7030.8190658978
 30
0.0
 11
2975.8866595913
 21
7024.3190658978
 31
0.0
  0
LINE
  5
116
330
1F
100
AcDbEntity
  8
0
  6
Continuous
 62
     7
370
    25
100
AcDbLine
 10
2975.8866595913
 20
7030.8190658978
 30
0.0
 11
2982.3866595913
 21
7030.8190658978
 31
0.0
  0
LINE
  5
117
330
1F
100
AcDbEntity
  8
0
  6
Continuous
 62
     7
370
    25
100
AcDbLine
 10
2982.3866595913
 20
7035.3190658978
 30
0.0
 11
2982.3866595913
 21
7030.8190658978
 31
0.0
  0
LINE
  5
118
330
1F
100
AcDbEntity
  8
0
  6
Continuous
 62
     7
370
    25
100
AcDbLine
 10
2975.8866595913
 20
7035.3190658978
 30
0.0
 11
2982.3866595913
 21
7035.3190658978
 31
0.0
  0
LINE
  5
119
330
1F
100
AcDbEntity
  8
0
  6
Continuous
 62
     7
370
    25
100
AcDbLine
 10
2975.8866595913
 20
7041.8190658978
 30
0.0
 11
2975.8866595913
 21
7035.3190658978
 31
0.0
  0
CIRCLE
  5
11A
330
1F
100
AcDbEntity
  8
0
  6
Continuous
 62
     7
370
    25
100
AcDbCircle
 10
2973.6366595913
 20
7033.0690658978
 30
0.0
 40
9.70556815909822
  0
LINE
  5
11B
330
1F
100
AcDbEntity
  8
0
  6
Continuous
 62
     7
370
    25
100
AcDbLine
 10
2971.3866595913
 20
6701.8190658978
 30
0.0
 11
2975.8866595913
 21
6701.8190658978
 31
0.0
  0
LINE
  5
11C
330
1F
100
AcDbEntity
  8
0
  6
Continuous
 62
     7
370
    25
100
AcDbLine
 10
2971.3866595913
 20
6701.8190658978
 30
0.0
 11
2971.3866595913
 21
6695.3190658978
 31
0.0
  0
LINE
  5
11D
330
1F
100
AcDbEntity
  8
0
  6
Continuous
 62
     7
370
    25
100
AcDbLine
 10
2964.8866595913
 20
6695.3190658978
 30
0.0
 11
2971.3866595913
 21
6695.3190658978
 31
0.0
  0
LINE
  5
11E
330
1F
100
AcDbEntity
  8
0
  6
Continuous
 62
     7
370
    25
100
AcDbLine
 10
2964.8866595913
 20
6695.3190658978
 30
0.0
 11
2964.8866595913
 21
6690.8190658978
 31
0.0
  0
LINE
  5
11F
330
1F
100
AcDbEntity
  8
0
  6
Continuous
 62
     7
370
    25
100
AcDbLine
 10
2964.8866595913
 20
6690.8190658978
 30
0.0
 11
2971.3866595913
 21
6690.8190658978
 31
0.0
  0
LINE
  5
120
330
1F
100
AcDbEntity
  8
0
  6
Continuous
 62
     7
370
    25
100
AcDbLine
 10
2971.3866595913
 20
6690.8190658978
 30
0.0
 11
2971.3866595913
 21
6684.3190658978
 31
0.0
  0
LINE
  5
121
330
1F
100
AcDbEntity
  8
0
  6
Continuous
 62
     7
370
    25
100
AcDbLine
 10
2971.3866595913
 20
6684.3190658978
 30
0.0
 11
2975.8866595913
 21
6684.3190658978
 31
0.0
  0
LINE
  5
122
330
1F
100
AcDbEntity
  8
0
  6
Continuous
 62
     7
370
    25
100
AcDbLine
 10
2975.8866595913
 20
6690.8190658978
 30
0.0
 11
2975.8866595913
 21
6684.3190658978
 31
0.0
  0
LINE
  5
123
330
1F
100
AcDbEntity
  8
0
  6
Continuous
 62
     7
370
    25
100
AcDbLine
 10
2975.8866595913
 20
6690.8190658978
 30
0.0
 11
2982.3866595913
 21
6690.8190658978
 31
0.0
  0
LINE
  5
124
330
1F
100
AcDbEntity
  8
0
  6
Continuous
 62
     7
370
    25
100
AcDbLine
 10
2982.3866595913
 20
6695.3190658978
 30
0.0
 11
2982.3866595913
 21
6690.8190658978
 31
0.0
  0
LINE
  5
125
330
1F
100
AcDbEntity
  8
0
  6
Continuous
 62
     7
370
    25
100
AcDbLine
 10
2975.8866595913
 20
6695.3190658978
 30
0.0
 11
2982.3866595913
 21
6695.3190658978
 31
0.0
  0
LINE
  5
126
330
1F
100
AcDbEntity
  8
0
  6
Continuous
 62
     7
370
    25
100
AcDbLine
 10
2975.8866595913
 20
6701.8190658978
 30
0.0
 11
2975.8866595913
 21
6695.3190658978
 31
0.0
  0
CIRCLE
  5
127
330
1F
100
AcDbEntity
  8
0
  6
Continuous
 62
     7
370
    25
100
AcDbCircle
 10
2973.6366595913
 20
6693.0690658978
 30
0.0
 40
9.705568159098675
  0
LINE
  5
128
330
1F
100
AcDbEntity
  8
0
  6
Continuous
 62
     7
370
    25
100
AcDbLine
 10
3321.3866595913
 20
7041.8190658978
 30
0.0
 11
3325.8866595913
 21
7041.8190658978
 31
0.0
  0
LINE
  5
129
330
1F
100
AcDbEntity
  8
0
  6
Continuous
 62
     7
370
    25
100
AcDbLine
 10
3321.3866595913
 20
7041.8190658978
 30
0.0
 11
3321.3866595913
 21
7035.3190658978
 31
0.0
  0
LINE
  5
12A
330
1F
100
AcDbEntity
  8
0
  6
Continuous
 62
     7
370
    25
100
AcDbLine
 10
3314.8866595913
 20
7035.3190658978
 30
0.0
 11
3321.3866595913
 21
7035.3190658978
 31
0.0
  0
LINE
  5
12B
330
1F
100
AcDbEntity
  8
0
  6
Continuous
 62
     7
370
    25
100
AcDbLine
 10
3314.8866595913
 20
7035.3190658978
 30
0.0
 11
3314.8866595913
 21
7030.8190658978
 31
0.0
  0
LINE
  5
12C
330
1F
100
AcDbEntity
  8
0
  6
Continuous
 62
     7
370
    25
100
AcDbLine
 10
3314.8866595913
 20
7030.8190658978
 30
0.0
 11
3321.3866595913
 21
7030.8190658978
 31
0.0
  0
LINE
  5
12D
330
1F
100
AcDbEntity
  8
0
  6
Continuous
 62
     7
370
    25
100
AcDbLine
 10
3321.3866595913
 20
7030.8190658978
 30
0.0
 11
3321.3866595913
 21
7024.3190658978
 31
0.0
  0
LINE
  5
12E
330
1F
100
AcDbEntity
  8
0
  6
Continuous
 62
     7
370
    25
100
AcDbLine
 10
3321.3866595913
 20
7024.3190658978
 30
0.0
 11
3325.8866595913
 21
7024.3190658978
 31
0.0
  0
LINE
  5
12F
330
1F
100
AcDbEntity
  8
0
  6
Continuous
 62
     7
370
    25
100
AcDbLine
 10
3325.8866595913
 20
7030.8190658978
 30
0.0
 11
3325.8866595913
 21
7024.3190658978
 31
0.0
  0
LINE
  5
130
330
1F
100
AcDbEntity
  8
0
  6
Continuous
 62
     7
370
    25
100
AcDbLine
 10
3325.8866595913
 20
7030.8190658978
 30
0.0
 11
3332.3866595913
 21
7030.8190658978
 31
0.0
  0
LINE
  5
131
330
1F
100
AcDbEntity
  8
0
  6
Continuous
 62
     7
370
    25
100
AcDbLine
 10
3332.3866595913
 20
7035.3190658978
 30
0.0
 11
3332.3866595913
 21
7030.8190658978
 31
0.0
  0
LINE
  5
132
330
1F
100
AcDbEntity
  8
0
  6
Continuous
 62
     7
370
    25
100
AcDbLine
 10
3325.8866595913
 20
7035.3190658978
 30
0.0
 11
3332.3866595913
 21
7035.3190658978
 31
0.0
  0
LINE
  5
133
330
1F
100
AcDbEntity
  8
0
  6
Continuous
 62
     7
370
    25
100
AcDbLine
 10
3325.8866595913
 20
7041.8190658978
 30
0.0
 11
3325.8866595913
 21
7035.3190658978
 31
0.0
  0
CIRCLE
  5
134
330
1F
100
AcDbEntity
  8
0
  6
Continuous
 62
     7
370
    25
100
AcDbCircle
 10
3323.6366595913
 20
7033.0690658978
 30
0.0
 40
9.70556815909822
  0
LINE
  5
135
330
1F
100
AcDbEntity
  8
0
  6
Continuous
 62
     7
370
    25
100
AcDbLine
 10
3321.3866595913
 20
6701.8190658978
 30
0.0
 11
3325.8866595913
 21
6701.8190658978
 31
0.0
  0
LINE
  5
136
330
1F
100
AcDbEntity
  8
0
  6
Continuous
 62
     7
370
    25
100
AcDbLine
 10
3321.3866595913
 20
6701.8190658978
 30
0.0
 11
3321.3866595913
 21
6695.3190658978
 31
0.0
  0
LINE
  5
137
330
1F
100
AcDbEntity
  8
0
  6
Continuous
 62
     7
370
    25
100
AcDbLine
 10
3314.8866595913
 20
6695.3190658978
 30
0.0
 11
3321.3866595913
 21
6695.3190658978
 31
0.0
  0
LINE
  5
138
330
1F
100
AcDbEntity
  8
0
  6
Continuous
 62
     7
370
    25
100
AcDbLine
 10
3314.8866595913
 20
6695.3190658978
 30
0.0
 11
3314.8866595913
 21
6690.8190658978
 31
0.0
  0
LINE
  5
139
330
1F
100
AcDbEntity
  8
0
  6
Continuous
 62
     7
370
    25
100
AcDbLine
 10
3314.8866595913
 20
6690.8190658978
 30
0.0
 11
3321.3866595913
 21
6690.8190658978
 31
0.0
  0
LINE
  5
13A
330
1F
100
AcDbEntity
  8
0
  6
Continuous
 62
     7
370
    25
100
AcDbLine
 10
3321.3866595913
 20
6690.8190658978
 30
0.0
 11
3321.3866595913
 21
6684.3190658978
 31
0.0
  0
LINE
  5
13B
330
1F
100
AcDbEntity
  8
0
  6
Continuous
 62
     7
370
    25
100
AcDbLine
 10
3321.3866595913
 20
6684.3190658978
 30
0.0
 11
3325.8866595913
 21
6684.3190658978
 31
0.0
  0
LINE
  5
13C
330
1F
100
AcDbEntity
  8
0
  6
Continuous
 62
     7
370
    25
100
AcDbLine
 10
3325.8866595913
 20
6690.8190658978
 30
0.0
 11
3325.8866595913
 21
6684.3190658978
 31
0.0
  0
LINE
  5
13D
330
1F
100
AcDbEntity
  8
0
  6
Continuous
 62
     7
370
    25
100
AcDbLine
 10
3325.8866595913
 20
6690.8190658978
 30
0.0
 11
3332.3866595913
 21
6690.8190658978
 31
0.0
  0
LINE
  5
13E
330
1F
100
AcDbEntity
  8
0
  6
Continuous
 62
     7
370
    25
100
AcDbLine
 10
3332.3866595913
 20
6695.3190658978
 30
0.0
 11
3332.3866595913
 21
6690.8190658978
 31
0.0
  0
LINE
  5
13F
330
1F
100
AcDbEntity
  8
0
  6
Continuous
 62
     7
370
    25
100
AcDbLine
 10
3325.8866595913
 20
6695.3190658978
 30
0.0
 11
3332.3866595913
 21
6695.3190658978
 31
0.0
  0
LINE
  5
140
330
1F
100
AcDbEntity
  8
0
  6
Continuous
 62
     7
370
    25
100
AcDbLine
 10
3325.8866595913
 20
6701.8190658978
 30
0.0
 11
3325.8866595913
 21
6695.3190658978
 31
0.0
  0
CIRCLE
  5
141
330
1F
100
AcDbEntity
  8
0
  6
Continuous
 62
     7
370
    25
100
AcDbCircle
 10
3323.6366595913
 20
6693.0690658978
 30
0.0
 40
9.70556815909822
  0
ARC
  5
142
330
1F
100
AcDbEntity
  8
0
  6
Continuous
 62
     7
370
    25
100
AcDbCircle
 10
2973.6366595913
 20
7033.0690658978
 30
0.0
 40
20.73223304703333
100
AcDbArc
 50
90.0
 51
180.0
  0
LINE
  5
143
330
1F
100
AcDbEntity
  8
0
  6
Continuous
 62
     7
370
    25
100
AcDbLine
 10
2973.6366595913
 20
7053.8012989448
 30
0.0
 11
2973.6366595913
 21
7052.0335319919
 31
0.0
  0
ARC
  5
144
330
1F
100
AcDbEntity
  8
0
  6
Continuous
 62
     7
370
    25
100
AcDbCircle
 10
2973.6366595913
 20
7033.0690658978
 30
0.0
 40
18.96446609406757
100
AcDbArc
 50
90.0
 51
180.0
  0
LINE
  5
145
330
1F
100
AcDbEntity
  8
0
  6
Continuous
 62
     7
370
    25
100
AcDbLine
 10
2952.9044265443
 20
7033.0690658978
 30
0.0
 11
2954.6721934972
 21
7033.0690658978
 31
0.0
  0
LINE
  5
146
330
1F
100
AcDbEntity
  8
0
  6
Continuous
 62
     7
370
    25
100
AcDbLine
 10
2973.6366595913
 20
7053.8012989448
 30
0.0
 11
3323.6366595913
 21
7053.8012989448
 31
0.0
  0
LINE
  5
147
330
1F
100
AcDbEntity
  8
0
  6
Continuous
 62
     7
370
    25
100
AcDbLine
 10
3323.6366595913
 20
7053.8012989448
 30
0.0
 11
3323.6366595913
 21
7052.0335319919
 31
0.0
  0
LINE
  5
148
330
1F
100
AcDbEntity
  8
0
  6
Continuous
 62
     7
370
    25
100
AcDbLine
 10
3323.6366595913
 20
7052.0335319919
 30
0.0
 11
2973.6366595913
 21
7052.0335319919
 31
0.0
  0
ARC
  5
149
330
1F
100
AcDbEntity
  8
0
  6
Continuous
 62
     7
370
    25
100
AcDbCircle
 10
3323.6366595913
 20
7033.0690658978
 30
0.0
 40
18.96446609406757
100
AcDbArc
 50
0.0
 51
90.0
  0
ARC
  5
14A
330
1F
100
AcDbEntity
  8
0
  6
Continuous
 62
     7
370
    25
100
AcDbCircle
 10
3323.6366595913
 20
7033.0690658978
 30
0.0
 40
20.73223304703333
100
AcDbArc
 50
0.0
 51
90.0
  0
LINE
  5
14B
330
1F
100
AcDbEntity
  8
0
  6
Continuous
 62
     7
370
    25
100
AcDbLine
 10
3342.6011256854
 20
7033.0690658978
 30
0.0
 11
3344.3688926383
 21
7033.0690658978
 31
0.0
  0
CIRCLE
  5
14C
330
1F
100
AcDbEntity
  8
0
  6
Continuous
 62
     7
370
    25
100
AcDbCircle
 10
3323.6366595913
 20
6693.0690658978
 30
0.0
 40
16.25
  0
CIRCLE
  5
14D
330
1F
100
AcDbEntity
  8
0
  6
Continuous
 62
     7
370
    25
100
AcDbCircle
 10
2973.6366595913
 20
7033.0690658978
 30
0.0
 40
16.24999999999955
  0
CIRCLE
  5
14E
330
1F
100
AcDbEntity
  8
0
  6
Continuous
 62
     7
370
    25
100
AcDbCircle
 10
2973.6366595913
 20
6693.0690658978
 30
0.0
 40
16.24999999999955
  0
ARC
  5
14F
330
1F
100
AcDbEntity
  8
0
  6
Continuous
 62
     7
370
    25
100
AcDbCircle
 10
3323.6366595913
 20
7033.0690658978
 30
0.0
 40
16.25
100
AcDbArc
 50
0.0
 51
219.0063093498
  0
ARC
  5
150
330
1F
100
AcDbEntity
  8
0
  6
Continuous
 62
     7
370
    25
100
AcDbCircle
 10
3323.6366595913
 20
7033.0690658978
 30
0.0
 40
16.25
100
AcDbArc
 50
248.1761415146
 51
0.0
  0
ARC
  5
151
330
1F
100
AcDbEntity
  8
0
  6
Continuous
 62
     7
370
    25
100
AcDbCircle
 10
3323.6366595913
 20
6693.0690658978
 30
0.0
 40
18.96446609406712
100
AcDbArc
 50
270.0
 51
0.0
  0
LINE
  5
152
330
1F
100
AcDbEntity
  8
0
  6
Continuous
 62
     7
370
    25
100
AcDbLine
 10
2973.6366595913
 20
6674.1045998037
 30
0.0
 11
3323.6366595913
 21
6674.1045998037
 31
0.0
  0
ARC
  5
153
330
1F
100
AcDbEntity
  8
0
  6
Continuous
 62
     7
370
    25
100
AcDbCircle
 10
2973.6366595913
 20
6693.0690658978
 30
0.0
 40
18.96446609406757
100
AcDbArc
 50
180.0
 51
270.0
  0
LINE
  5
154
330
1F
100
AcDbEntity
  8
0
  6
Continuous
 62
     7
370
    25
100
AcDbLine
 10
2954.6721934972
 20
7033.0690658978
 30
0.0
 11
2954.6721934972
 21
6693.0690658978
 31
0.0
  0
LINE
  5
155
330
1F
100
AcDbEntity
  8
0
  6
Continuous
 62
     7
370
    25
100
AcDbLine
 10
3342.6011256854
 20
6693.0690658978
 30
0.0
 11
3342.6011256854
 21
7033.0690658978
 31
0.0
  0
LINE
  5
156
330
1F
100
AcDbEntity
  8
0
  6
Continuous
 62
     7
370
    25
100
AcDbLine
 10
2952.9044265443
 20
6693.0690658978
 30
0.0
 11
2952.9044265443
 21
7033.0690658978
 31
0.0
  0
LINE
  5
157
330
1F
100
AcDbEntity
  8
0
  6
Continuous
 62
     7
370
    25
100
AcDbLine
 10
2952.9044265443
 20
6693.0690658978
 30
0.0
 11
2954.6721934972
 21
6693.0690658978
 31
0.0
  0
LINE
  5
158
330
1F
100
AcDbEntity
  8
0
  6
Continuous
 62
     7
370
    25
100
AcDbLine
 10
3344.3688926383
 20
7033.0690658978
 30
0.0
 11
3344.3688926383
 21
6693.0690658978
 31
0.0
  0
LINE
  5
159
330
1F
100
AcDbEntity
  8
0
  6
Continuous
 62
     7
370
    25
100
AcDbLine
 10
3342.6011256854
 20
6693.0690658978
 30
0.0
 11
3344.3688926383
 21
6693.0690658978
 31
0.0
  0
LINE
  5
15A
330
1F
100
AcDbEntity
  8
0
  6
Continuous
 62
     7
370
    25
100
AcDbLine
 10
2973.6366595913
 20
6674.1045998037
 30
0.0
 11
2973.6366595913
 21
6672.3368328508
 31
0.0
  0
ARC
  5
15B
330
1F
100
AcDbEntity
  8
0
  6
Continuous
 62
     7
370
    25
100
AcDbCircle
 10
2973.6366595913
 20
6693.0690658978
 30
0.0
 40
20.73223304703424
100
AcDbArc
 50
180.0
 51
270.0
  0
ARC
  5
15C
330
1F
100
AcDbEntity
  8
0
  6
Continuous
 62
     7
370
    25
100
AcDbCircle
 10
3323.6366595913
 20
6693.0690658978
 30
0.0
 40
20.73223304703424
100
AcDbArc
 50
270.0
 51
0.0
  0
LINE
  5
15D
330
1F
100
AcDbEntity
  8
0
  6
Continuous
 62
     7
370
    25
100
AcDbLine
 10
3323.6366595913
 20
6674.1045998037
 30
0.0
 11
3323.6366595913
 21
6672.3368328508
 31
0.0
  0
LINE
  5
15E
330
1F
100
AcDbEntity
  8
0
  6
Continuous
 62
     7
370
    25
100
AcDbLine
 10
3323.6366595913
 20
6672.3368328508
 30
0.0
 11
2973.6366595913
 21
6672.3368328508
 31
0.0
  0
LINE
  5
15F
330
1F
100
AcDbEntity
  8
0
  6
Continuous
 62
     7
370
    25
100
AcDbLine
 10
3323.6366595913
 20
7062.3368328508
 30
0.0
 11
2973.6366595913
 21
7062.3368328508
 31
0.0
  0
LINE
  5
160
330
1F
100
AcDbEntity
  8
0
  6
Continuous
 62
     7
370
    25
100
AcDbLine
 10
3323.6366595913
 20
7053.8012989448
 30
0.0
 11
3323.6366595913
 21
7062.3368328508
 31
0.0
  0
LINE
  5
161
330
1F
100
AcDbEntity
  8
0
  6
Continuous
 62
     7
370
    25
100
AcDbLine
 10
2973.6366595913
 20
7053.8012989448
 30
0.0
 11
2973.6366595913
 21
7062.3368328508
 31
0.0
  0
ARC
  5
162
330
1F
100
AcDbEntity
  8
0
  6
Continuous
 62
     7
370
    25
100
AcDbCircle
 10
2973.6366595913
 20
7033.0690658978
 30
0.0
 40
29.26776695296667
100
AcDbArc
 50
90.0
 51
180.0
  0
LINE
  5
163
330
1F
100
AcDbEntity
  8
0
  6
Continuous
 62
     7
370
    25
100
AcDbLine
 10
2952.9044265443
 20
7033.0690658978
 30
0.0
 11
2944.3688926383
 21
7033.0690658978
 31
0.0
  0
ARC
  5
164
330
1F
100
AcDbEntity
  8
0
  6
Continuous
 62
     7
370
    25
100
AcDbCircle
 10
3323.6366595913
 20
7033.0690658978
 30
0.0
 40
29.26776695296667
100
AcDbArc
 50
0.0
 51
90.0
  0
LINE
  5
165
330
1F
100
AcDbEntity
  8
0
  6
Continuous
 62
     7
370
    25
100
AcDbLine
 10
3352.9044265443
 20
7033.0690658978
 30
0.0
 11
3344.3688926383
 21
7033.0690658978
 31
0.0
  0
LINE
  5
166
330
1F
100
AcDbEntity
  8
0
  6
Continuous
 62
     7
370
    25
100
AcDbLine
 10
2944.3688926383
 20
7033.0690658978
 30
0.0
 11
2944.3688926383
 21
6693.0690658978
 31
0.0
  0
LINE
  5
167
330
1F
100
AcDbEntity
  8
0
  6
Continuous
 62
     7
370
    25
100
AcDbLine
 10
2952.9044265443
 20
6693.0690658978
 30
0.0
 11
2944.3688926383
 21
6693.0690658978
 31
0.0
  0
LINE
  5
168
330
1F
100
AcDbEntity
  8
0
  6
Continuous
 62
     7
370
    25
100
AcDbLine
 10
3352.9044265443
 20
6693.0690658978
 30
0.0
 11
3352.9044265443
 21
7033.0690658978
 31
0.0
  0
LINE
  5
169
330
1F
100
AcDbEntity
  8
0
  6
Continuous
 62
     7
370
    25
100
AcDbLine
 10
3352.9044265443
 20
6693.0690658978
 30
0.0
 11
3344.3688926383
 21
6693.0690658978
 31
0.0
  0
ARC
  5
16A
330
1F
100
AcDbEntity
  8
0
  6
Continuous
 62
     7
370
    25
100
AcDbCircle
 10
2973.6366595913
 20
6693.0690658978
 30
0.0
 40
29.26776695296667
100
AcDbArc
 50
180.0
 51
270.0
  0
LINE
  5
16B
330
1F
100
AcDbEntity
  8
0
  6
Continuous
 62
     7
370
    25
100
AcDbLine
 10
2973.6366595913
 20
6663.8012989448
 30
0.0
 11
2973.6366595913
 21
6672.3368328508
 31
0.0
  0
ARC
  5
16C
330
1F
100
AcDbEntity
  8
0
  6
Continuous
 62
     7
370
    25
100
AcDbCircle
 10
3323.6366595913
 20
6693.0690658978
 30
0.0
 40
29.26776695296621
100
AcDbArc
 50
270.0
 51
0.0
  0
LINE
  5
16D
330
1F
100
AcDbEntity
  8
0
  6
Continuous
 62
     7
370
    25
100
AcDbLine
 10
3323.6366595913
 20
6663.8012989448
 30
0.0
 11
3323.6366595913
 21
6672.3368328508
 31
0.0
  0
LINE
  5
16E
330
1F
100
AcDbEntity
  8
0
  6
Continuous
 62
     7
370
    25
100
AcDbLine
 10
2973.6366595913
 20
6663.8012989448
 30
0.0
 11
3323.6366595913
 21
6663.8012989448
 31
0.0
  0
LINE
  5
16F
330
1F
100
AcDbEntity
  8
0
  6
Continuous
 62
     7
370
    25
100
AcDbLine
 10
2973.6366595913
 20
7062.3368328508
 30
0.0
 11
2973.6366595913
 21
7063.0690658978
 31
0.0
  0
LINE
  5
170
330
1F
100
AcDbEntity
  8
0
  6
Continuous
 62
     7
370
    25
100
AcDbLine
 10
2973.6366595913
 20
7063.0690658978
 30
0.0
 11
3323.6366595913
 21
7063.0690658978
 31
0.0
  0
LINE
  5
171
330
1F
100
AcDbEntity
  8
0
  6
Continuous
 62
     7
370
    25
100
AcDbLine
 10
3323.6366595913
 20
7062.3368328508
 30
0.0
 11
3323.6366595913
 21
7063.0690658978
 31
0.0
  0
ARC
  5
172
330
1F
100
AcDbEntity
  8
0
  6
Continuous
 62
     7
370
    25
100
AcDbCircle
 10
2973.6366595913
 20
7033.0690658978
 30
0.0
 40
30.0
100
AcDbArc
 50
90.0
 51
180.0
  0
LINE
  5
173
330
1F
100
AcDbEntity
  8
0
  6
Continuous
 62
     7
370
    25
100
AcDbLine
 10
2943.6366595913
 20
7033.0690658978
 30
0.0
 11
2944.3688926383
 21
7033.0690658978
 31
0.0
  0
ARC
  5
174
330
1F
100
AcDbEntity
  8
0
  6
Continuous
 62
     7
370
    25
100
AcDbCircle
 10
3323.6366595913
 20
7033.0690658978
 30
0.0
 40
30.00000000000045
100
AcDbArc
 50
0.0
 51
90.0
  0
LINE
  5
175
330
1F
100
AcDbEntity
  8
0
  6
Continuous
 62
     7
370
    25
100
AcDbLine
 10
3352.9044265443
 20
7033.0690658978
 30
0.0
 11
3353.6366595913
 21
7033.0690658978
 31
0.0
  0
LINE
  5
176
330
1F
100
AcDbEntity
  8
0
  6
Continuous
 62
     7
370
    25
100
AcDbLine
 10
2943.6366595913
 20
6693.0690658978
 30
0.0
 11
2943.6366595913
 21
7033.0690658978
 31
0.0
  0
LINE
  5
177
330
1F
100
AcDbEntity
  8
0
  6
Continuous
 62
     7
370
    25
100
AcDbLine
 10
2943.6366595913
 20
6693.0690658978
 30
0.0
 11
2944.3688926383
 21
6693.0690658978
 31
0.0
  0
LINE
  5
178
330
1F
100
AcDbEntity
  8
0
  6
Continuous
 62
     7
370
    25
100
AcDbLine
 10
3353.6366595913
 20
7033.0690658978
 30
0.0
 11
3353.6366595913
 21
6693.0690658978
 31
0.0
  0
LINE
  5
179
330
1F
100
AcDbEntity
  8
0
  6
Continuous
 62
     7
370
    25
100
AcDbLine
 10
3352.9044265443
 20
6693.0690658978
 30
0.0
 11
3353.6366595913
 21
6693.0690658978
 31
0.0
  0
ARC
  5
17A
330
1F
100
AcDbEntity
  8
0
  6
Continuous
 62
     7
370
    25
100
AcDbCircle
 10
2973.6366595913
 20
6693.0690658978
 30
0.0
 40
30.00000000000045
100
AcDbArc
 50
180.0
 51
270.0
  0
LINE
  5
17B
330
1F
100
AcDbEntity
  8
0
  6
Continuous
 62
     7
370
    25
100
AcDbLine
 10
2973.6366595913
 20
6663.0690658978
 30
0.0
 11
2973.6366595913
 21
6663.8012989448
 31
0.0
  0
ARC
  5
17C
330
1F
100
AcDbEntity
  8
0
  6
Continuous
 62
     7
370
    25
100
AcDbCircle
 10
3323.6366595913
 20
6693.0690658978
 30
0.0
 40
30.0
100
AcDbArc
 50
270.0
 51
0.0
  0
LINE
  5
17D
330
1F
100
AcDbEntity
  8
0
  6
Continuous
 62
     7
370
    25
100
AcDbLine
 10
3323.6366595913
 20
6663.0690658978
 30
0.0
 11
3323.6366595913
 21
6663.8012989448
 31
0.0
  0
LINE
  5
17E
330
1F
100
AcDbEntity
  8
0
  6
Continuous
 62
     7
370
    25
100
AcDbLine
 10
3323.6366595913
 20
6663.0690658978
 30
0.0
 11
2973.6366595913
 21
6663.0690658978
 31
0.0
  0
ARC
  5
17F
330
1F
100
AcDbEntity
  8
0
  6
Continuous
 62
     7
370
    25
100
AcDbCircle
 10
3134.6366595913
 20
6693.0690658978
 30
0.0
 40
40.62019202318017
100
AcDbArc
 50
266.4714585265
 51
273.5285414735
  0
LINE
  5
180
330
1F
100
AcDbEntity
  8
0
  6
Continuous
 62
     7
370
    25
100
AcDbLine
 10
3132.1366595913
 20
6652.5258790473
 30
0.0
 11
3132.1366595913
 21
6650.9383170319
 31
0.0
  0
SPLINE
  5
181
330
1F
100
AcDbEntity
  8
0
  6
Continuous
 62
     7
370
    25
100
AcDbSpline
210
0.0
220
0.0
230
1.0
 70
     8
 71
     3
 72
    12
 73
     8
 74
     0
 42
0.00000001
 43
0.00000001
 40
0.0
 40
0.0
 40
0.0
 40
0.0
 40
0.2135413414436613
 40
0.4271558781179529
 40
0.6391534182107208
 40
0.8504463930752558
 40
1.0
 40
1.0
 40
1.0
 40
1.0
 10
3129.636659591312
 20
6650.938317031939
 30
0.0
 10
3129.915359468597
 20
6650.908479357491
 30
0.0
 10
3130.472854752686
 20
6650.848793781182
 30
0.0
 10
3131.219405530503
 20
6650.810828185945
 30
0.0
 10
3131.783269285849
 20
6650.818176976968
 30
0.0
 10
3132.090836418336
 20
6650.8649974255
 30
0.0
 10
3132.123232831388
 20
6650.916833474833
 30
0.0
 10
3132.136659591312
 20
6650.938317031939
 30
0.0
  0
ARC
  5
182
330
1F
100
AcDbEntity
  8
0
  6
Continuous
 62
     7
370
    25
100
AcDbCircle
 10
3134.6366595913
 20
6693.0690658978
 30
0.0
 40
42.42640687119334
100
AcDbArc
 50
252.8647784925
 51
263.2318986313
  0
LINE
  5
183
330
1F
100
AcDbEntity
  8
0
  6
Continuous
 62
     7
370
    25
100
AcDbLine
 10
3122.1366595913
 20
6652.4488738746
 30
0.0
 11
3122.1366595913
 21
6652.5258790473
 31
0.0
  0
LINE
  5
184
330
1F
100
AcDbEntity
  8
0
  6
Continuous
 62
     7
370
    25
100
AcDbLine
 10
3147.1366595913
 20
6652.4488738746
 30
0.0
 11
3147.1366595913
 21
6652.5258790473
 31
0.0
  0
ARC
  5
185
330
1F
100
AcDbEntity
  8
0
  6
Continuous
 62
     7
370
    25
100
AcDbCircle
 10
3134.6366595913
 20
6693.0690658978
 30
0.0
 40
42.42640687119325
100
AcDbArc
 50
276.7681013687
 51
287.1352215075
  0
SPLINE
  5
186
330
1F
100
AcDbEntity
  8
0
  6
Continuous
 62
     7
370
    25
100
AcDbSpline
210
0.0
220
0.0
230
1.0
 70
     8
 71
     3
 72
    12
 73
     8
 74
     0
 42
0.00000001
 43
0.00000001
 40
0.0
 40
0.0
 40
0.0
 40
0.0
 40
0.2135413414436505
 40
0.4271558781179493
 40
0.6391534182107104
 40
0.8504463930752552
 40
1.0
 40
1.0
 40
1.0
 40
1.0
 10
3137.136659591312
 20
6650.938317031939
 30
0.0
 10
3137.163753330502
 20
6650.908479357491
 30
0.0
 10
3137.217950095762
 20
6650.848793781181
 30
0.0
 10
3137.643510299974
 20
6650.810828185945
 30
0.0
 10
3138.269510310387
 20
6650.818176976968
 30
0.0
 10
3138.97270876782
 20
6650.8649974255
 30
0.0
 10
3139.442113737549
 20
6650.916833474833
 30
0.0
 10
3139.636659591312
 20
6650.938317031939
 30
0.0
  0
LINE
  5
187
330
1F
100
AcDbEntity
  8
0
  6
Continuous
 62
     7
370
    25
100
AcDbLine
 10
3137.1366595913
 20
6652.5258790473
 30
0.0
 11
3137.1366595913
 21
6650.9383170319
 31
0.0
  0
ARC
  5
188
330
1F
100
AcDbEntity
  8
0
  6
Continuous
 62
     7
370
    25
100
AcDbCircle
 10
3034.6366595913
 20
6693.0690658978
 30
0.0
 40
40.62019202318017
100
AcDbArc
 50
266.4714585265
 51
273.5285414735
  0
LINE
  5
189
330
1F
100
AcDbEntity
  8
0
  6
Continuous
 62
     7
370
    25
100
AcDbLine
 10
3032.1366595913
 20
6652.5258790473
 30
0.0
 11
3032.1366595913
 21
6650.9383170319
 31
0.0
  0
SPLINE
  5
18A
330
1F
100
AcDbEntity
  8
0
  6
Continuous
 62
     7
370
    25
100
AcDbSpline
210
0.0
220
0.0
230
1.0
 70
     8
 71
     3
 72
    12
 73
     8
 74
     0
 42
0.00000001
 43
0.00000001
 40
0.0
 40
0.0
 40
0.0
 40
0.0
 40
0.2135413414436578
 40
0.4271558781179474
 40
0.6391534182107097
 40
0.8504463930752572
 40
1.0
 40
1.0
 40
1.0
 40
1.0
 10
3029.636659591312
 20
6650.938317031939
 30
0.0
 10
3029.915359468597
 20
6650.908479357491
 30
0.0
 10
3030.472854752687
 20
6650.848793781182
 30
0.0
 10
3031.219405530503
 20
6650.810828185944
 30
0.0
 10
3031.783269285849
 20
6650.818176976968
 30
0.0
 10
3032.090836418336
 20
6650.8649974255
 30
0.0
 10
3032.123232831388
 20
6650.916833474833
 30
0.0
 10
3032.136659591312
 20
6650.938317031939
 30
0.0
  0
ARC
  5
18B
330
1F
100
AcDbEntity
  8
0
  6
Continuous
 62
     7
370
    25
100
AcDbCircle
 10
3034.6366595913
 20
6693.0690658978
 30
0.0
 40
42.42640687119334
100
AcDbArc
 50
252.8647784925
 51
263.2318986313
  0
LINE
  5
18C
330
1F
100
AcDbEntity
  8
0
  6
Continuous
 62
     7
370
    25
100
AcDbLine
 10
3022.1366595913
 20
6652.4488738746
 30
0.0
 11
3022.1366595913
 21
6652.5258790473
 31
0.0
  0
LINE
  5
18D
330
1F
100
AcDbEntity
  8
0
  6
Continuous
 62
     7
370
    25
100
AcDbLine
 10
3047.1366595913
 20
6652.4488738746
 30
0.0
 11
3047.1366595913
 21
6652.5258790473
 31
0.0
  0
ARC
  5
18E
330
1F
100
AcDbEntity
  8
0
  6
Continuous
 62
     7
370
    25
100
AcDbCircle
 10
3034.6366595913
 20
6693.0690658978
 30
0.0
 40
42.4264068711932
100
AcDbArc
 50
276.7681013687
 51
287.1352215075
  0
SPLINE
  5
18F
330
1F
100
AcDbEntity
  8
0
  6
Continuous
 62
     7
370
    25
100
AcDbSpline
210
0.0
220
0.0
230
1.0
 70
     8
 71
     3
 72
    12
 73
     8
 74
     0
 42
0.00000001
 43
0.00000001
 40
0.0
 40
0.0
 40
0.0
 40
0.0
 40
0.2135413414436578
 40
0.4271558781179474
 40
0.6391534182107097
 40
0.8504463930752572
 40
1.0
 40
1.0
 40
1.0
 40
1.0
 10
3037.136659591312
 20
6650.938317031939
 30
0.0
 10
3037.163753330502
 20
6650.908479357491
 30
0.0
 10
3037.217950095763
 20
6650.848793781182
 30
0.0
 10
3037.643510299974
 20
6650.810828185944
 30
0.0
 10
3038.269510310387
 20
6650.818176976968
 30
0.0
 10
3038.97270876782
 20
6650.8649974255
 30
0.0
 10
3039.44211373755
 20
6650.916833474833
 30
0.0
 10
3039.636659591312
 20
6650.938317031939
 30
0.0
  0
LINE
  5
190
330
1F
100
AcDbEntity
  8
0
  6
Continuous
 62
     7
370
    25
100
AcDbLine
 10
3037.1366595913
 20
6652.5258790473
 30
0.0
 11
3037.1366595913
 21
6650.9383170319
 31
0.0
  0
SPLINE
  5
191
330
1F
100
AcDbEntity
  8
0
  6
Continuous
 62
     7
370
    25
100
AcDbSpline
210
0.0
220
0.0
230
1.0
 70
     8
 71
     3
 72
    10
 73
     6
 74
     0
 42
0.00000001
 43
0.00000001
 40
0.0
 40
0.0
 40
0.0
 40
0.0
 40
0.4281038994429215
 40
0.9062319414377611
 40
1.0
 40
1.0
 40
1.0
 40
1.0
 10
3048.13665959131
 20
6649.218388624923
 30
0.0
 10
3048.981204118068
 20
6649.343674076195
 30
0.0
 10
3050.768978597841
 20
6649.608884642808
 30
0.0
 10
3054.115117183336
 20
6649.891784799083
 30
0.0
 10
3056.340988483207
 20
6650.044093388457
 30
0.0
 10
3056.705942240008
 20
6650.069065897823
 30
0.0
  0
SPLINE
  5
192
330
1F
100
AcDbEntity
  8
0
  6
Continuous
 62
     7
370
    25
100
AcDbSpline
210
0.0
220
0.0
230
1.0
 70
     8
 71
     3
 72
    12
 73
     8
 74
     0
 42
0.00000001
 43
0.00000001
 40
0.0
 40
0.0
 40
0.0
 40
0.0
 40
0.1999550283799832
 40
0.3999100563996965
 40
0.5998650891483807
 40
0.7998201218970504
 40
0.9999999999999999
 40
0.9999999999999999
 40
0.9999999999999999
 40
0.9999999999999999
 10
3056.705942240008
 20
6650.069065897823
 30
0.0
 10
3060.779878236316
 20
6650.173232584748
 30
0.0
 10
3068.927750221592
 20
6650.381565958411
 30
0.0
 10
3084.707043076564
 20
6650.694065620783
 30
0.0
 10
3100.064035869644
 20
6651.006566880505
 30
0.0
 10
3113.557800510222
 20
6651.319179296172
 30
0.0
 10
3118.609427021122
 20
6651.527641511922
 30
0.0
 10
3121.13665959131
 20
6651.631931189744
 30
0.0
  0
SPLINE
  5
193
330
1F
100
AcDbEntity
  8
0
  6
Continuous
 62
     7
370
    25
100
AcDbSpline
210
0.0
220
0.0
230
1.0
 70
    24
 71
     3
 72
    10
 73
     6
 74
     0
 42
0.00000001
 43
0.00000001
 40
0.0
 40
0.0
 40
0.0
 40
0.0
 40
0.3146003436808988
 40
0.6568370913734822
 40
1.0
 40
1.0
 40
1.0
 40
1.0
 10
3121.136659591312
 20
6651.631931189748
 30
0.0
 10
3121.136659591311
 20
6651.426507371017
 30
0.0
 10
3121.136659591311
 20
6650.997614058268
 30
0.0
 10
3121.136659591305
 20
6650.530248436613
 30
0.0
 10
3121.13665959131
 20
6650.366118051062
 30
0.0
 10
3121.136659591312
 20
6650.283941965939
 30
0.0
  0
SPLINE
  5
194
330
1F
100
AcDbEntity
  8
0
  6
Continuous
 62
     7
370
    25
100
AcDbSpline
210
0.0
220
0.0
230
1.0
 70
     8
 71
     3
 72
    15
 73
    11
 74
     0
 42
0.00000001
 43
0.00000001
 40
0.0
 40
0.0
 40
0.0
 40
0.0
 40
0.114777488100115
 40
0.228353487962602
 40
0.364176743981298
 40
0.4999999999999931
 40
0.6358232560186813
 40
0.7716465120373505
 40
0.8852225118998744
 40
1.0
 40
1.0
 40
1.0
 40
1.0
 10
3048.136659591311
 20
6647.979189816047
 30
0.0
 10
3049.038425461998
 20
6648.069029972735
 30
0.0
 10
3050.83251753794
 20
6648.247769841311
 30
0.0
 10
3058.665092332898
 20
6648.522513074878
 30
0.0
 10
3070.175241844251
 20
6648.819365021398
 30
0.0
 10
3084.636659591311
 20
6649.131565890993
 30
0.0
 10
3099.09807733837
 20
6649.443766760589
 30
0.0
 10
3110.608226849725
 20
6649.740618707111
 30
0.0
 10
3118.440801644683
 20
6650.015361940675
 30
0.0
 10
3120.234893720624
 20
6650.194101809252
 30
0.0
 10
3121.13665959131
 20
6650.283941965939
 30
0.0
  0
LINE
  5
195
330
1F
100
AcDbEntity
  8
0
  6
Continuous
 62
     7
370
    25
100
AcDbLine
 10
3048.1366595913
 20
6647.979189816
 30
0.0
 11
3048.1366595913
 21
6648.2523615799
 31
0.0
  0
SPLINE
  5
196
330
1F
100
AcDbEntity
  8
0
  6
Continuous
 62
     7
370
    25
100
AcDbSpline
210
0.0
220
0.0
230
1.0
 70
     8
 71
     3
 72
    15
 73
    11
 74
     0
 42
0.00000001
 43
0.00000001
 40
0.0
 40
0.0
 40
0.0
 40
0.0
 40
0.1147774881001135
 40
0.2283534879625979
 40
0.3641767439812983
 40
0.4999999999999946
 40
0.6358232560186817
 40
0.7716465120373508
 40
0.8852225118998751
 40
1.0
 40
1.0
 40
1.0
 40
1.0
 10
3048.136659591311
 20
6651.729189816047
 30
0.0
 10
3049.038425461998
 20
6651.819029972734
 30
0.0
 10
3050.83251753794
 20
6651.997769841311
 30
0.0
 10
3058.665092332897
 20
6652.272513074877
 30
0.0
 10
3070.175241844251
 20
6652.569365021399
 30
0.0
 10
3084.636659591311
 20
6652.881565890992
 30
0.0
 10
3099.09807733837
 20
6653.193766760589
 30
0.0
 10
3110.608226849725
 20
6653.490618707111
 30
0.0
 10
3118.440801644683
 20
6653.765361940675
 30
0.0
 10
3120.234893720624
 20
6653.944101809252
 30
0.0
 10
3121.13665959131
 20
6654.033941965939
 30
0.0
  0
SPLINE
  5
197
330
1F
100
AcDbEntity
  8
0
  6
Continuous
 62
     7
370
    25
100
AcDbSpline
210
0.0
220
0.0
230
1.0
 70
    24
 71
     3
 72
    10
 73
     6
 74
     0
 42
0.00000001
 43
0.00000001
 40
0.0
 40
0.0
 40
0.0
 40
0.0
 40
0.3127691959377739
 40
0.6224823689595911
 40
1.0
 40
1.0
 40
1.0
 40
1.0
 10
3121.136659591312
 20
6654.03394196594
 30
0.0
 10
3121.136659591312
 20
6653.913636153988
 30
0.0
 10
3121.136659591312
 20
6653.674200020902
 30
0.0
 10
3121.13665959131
 20
6653.086926404415
 30
0.0
 10
3121.136659591311
 20
6652.551214633865
 30
0.0
 10
3121.136659591312
 20
6652.256931203404
 30
0.0
  0
SPLINE
  5
198
330
1F
100
AcDbEntity
  8
0
  6
Continuous
 62
     7
370
    25
100
AcDbSpline
210
0.0
220
0.0
230
1.0
 70
     8
 71
     3
 72
    13
 73
     9
 74
     0
 42
0.00000001
 43
0.00000001
 40
0.0
 40
0.0
 40
0.0
 40
0.0
 40
0.1667915620298009
 40
0.3333957810148966
 40
0.4999999999999902
 40
0.666604218985094
 40
0.8332084379701873
 40
1.0
 40
1.0
 40
1.0
 40
1.0
 10
3048.136659591313
 20
6650.381200592242
 30
0.0
 10
3050.66545881622
 20
6650.485490264146
 30
0.0
 10
3055.720216876866
 20
6650.693952468069
 30
0.0
 10
3069.190515118948
 20
6651.006564972372
 30
0.0
 10
3084.63665959131
 20
6651.319065897819
 30
0.0
 10
3100.082804063674
 20
6651.631566823271
 30
0.0
 10
3113.553102305756
 20
6651.944179327575
 30
0.0
 10
3118.607860366402
 20
6652.152641531496
 30
0.0
 10
3121.13665959131
 20
6652.2569312034
 30
0.0
  0
SPLINE
  5
199
330
1F
100
AcDbEntity
  8
0
  6
Continuous
 62
     7
370
    25
100
AcDbSpline
210
0.0
220
0.0
230
1.0
 70
    24
 71
     3
 72
    10
 73
     6
 74
     0
 42
0.00000001
 43
0.00000001
 40
0.0
 40
0.0
 40
0.0
 40
0.0
 40
0.3146003436808975
 40
0.6568370913738183
 40
1.0
 40
1.0
 40
1.0
 40
1.0
 10
3048.136659591311
 20
6650.381200592242
 30
0.0
 10
3048.136659591311
 20
6650.586624410972
 30
0.0
 10
3048.136659591311
 20
6651.015517723723
 30
0.0
 10
3048.136659591316
 20
6651.482883345373
 30
0.0
 10
3048.136659591312
 20
6651.647013730926
 30
0.0
 10
3048.13665959131
 20
6651.729189816047
 30
0.0
  0
LINE
  5
19A
330
1F
100
AcDbEntity
  8
0
  6
Continuous
 62
     7
370
    25
100
AcDbLine
 10
3121.1366595913
 20
6651.6319311897
 30
0.0
 11
3121.1366595913
 21
6652.2569312034
 31
0.0
  0
LINE
  5
19B
330
1F
100
AcDbEntity
  8
0
  6
Continuous
 62
     7
370
    25
100
AcDbLine
 10
3048.1366595913
 20
6650.0690658978
 30
0.0
 11
3056.70594224
 21
6650.0690658978
 31
0.0
  0
LINE
  5
19C
330
1F
100
AcDbEntity
  8
0
  6
Continuous
 62
     7
370
    25
100
AcDbLine
 10
3048.1366595913
 20
6650.3812005922
 30
0.0
 11
3048.1366595913
 21
6650.0690658978
 31
0.0
  0
SPLINE
  5
19D
330
1F
100
AcDbEntity
  8
0
  6
Continuous
 62
     7
370
    25
100
AcDbSpline
210
0.0
220
0.0
230
1.0
 70
     8
 71
     3
 72
    11
 73
     7
 74
     0
 42
0.00000001
 43
0.00000001
 40
0.0
 40
0.0
 40
0.0
 40
0.0
 40
0.1733650993568685
 40
0.4913015969332964
 40
0.8092380945097211
 40
1.0
 40
1.0
 40
1.0
 40
1.0
 10
3054.061408270578
 20
6662.087355290664
 30
0.0
 10
3055.475485056473
 20
6662.143682101973
 30
0.0
 10
3059.482855546113
 20
6662.303307380932
 30
0.0
 10
3070.263197686641
 20
6662.569275817524
 30
0.0
 10
3082.799588496328
 20
6662.839870361702
 30
0.0
 10
3090.279783577897
 20
6663.006558023298
 30
0.0
 10
3093.084856797307
 20
6663.069065897818
 30
0.0
  0
LINE
  5
19E
330
1F
100
AcDbEntity
  8
0
  6
Continuous
 62
     7
370
    25
100
AcDbLine
 10
3121.1366595913
 20
6663.0690658978
 30
0.0
 11
3121.1366595913
 21
6662.2569312034
 31
0.0
  0
SPLINE
  5
19F
330
1F
100
AcDbEntity
  8
0
  6
Continuous
 62
     7
370
    25
100
AcDbSpline
210
0.0
220
0.0
230
1.0
 70
     8
 71
     3
 72
    13
 73
     9
 74
     0
 42
0.00000001
 43
0.00000001
 40
0.0
 40
0.0
 40
0.0
 40
0.0
 40
0.0462470414162693
 40
0.2369547437490293
 40
0.4276624460817879
 40
0.618370148414551
 40
0.8090778507473124
 40
1.0
 40
1.0
 40
1.0
 40
1.0
 10
3054.630205903202
 20
6660.61828058532
 30
0.0
 10
3055.289738459467
 20
6660.643542478378
 30
0.0
 10
3058.668967985896
 20
6660.772976172143
 30
0.0
 10
3069.370338319865
 20
6661.006564293586
 30
0.0
 10
3084.588492791374
 20
6661.319066079637
 30
0.0
 10
3100.095648062501
 20
6661.631566774789
 30
0.0
 10
3113.549887093224
 20
6661.944179339711
 30
0.0
 10
3118.606788227476
 20
6662.152641535543
 30
0.0
 10
3121.13665959131
 20
6662.2569312034
 30
0.0
  0
SPLINE
  5
1A0
330
1F
100
AcDbEntity
  8
0
  6
Continuous
 62
     7
370
    25
100
AcDbSpline
210
0.0
220
0.0
230
1.0
 70
     8
 71
     3
 72
    13
 73
     9
 74
     0
 42
0.00000001
 43
0.00000001
 40
0.0
 40
0.0
 40
0.0
 40
0.0
 40
0.048601555827232
 40
0.2388384611581256
 40
0.4290753664890152
 40
0.6193122718199104
 40
0.809549177150806
 40
1.0
 40
1.0
 40
1.0
 40
1.0
 10
3054.519128161006
 20
6659.989225112738
 30
0.0
 10
3055.212544339037
 20
6660.015838837298
 30
0.0
 10
3058.62014004424
 20
6660.146624383394
 30
0.0
 10
3069.365217158444
 20
6660.38156429926
 30
0.0
 10
3084.589864527371
 20
6660.694066060803
 30
0.0
 10
3100.095282279938
 20
6661.006566762514
 30
0.0
 10
3113.549978658841
 20
6661.319179325708
 30
0.0
 10
3118.606818760781
 20
6661.527641521772
 30
0.0
 10
3121.13665959131
 20
6661.631931189744
 30
0.0
  0
SPLINE
  5
1A1
330
1F
100
AcDbEntity
  8
0
  6
Continuous
 62
     7
370
    25
100
AcDbSpline
210
0.0
220
0.0
230
1.0
 70
    24
 71
     3
 72
    10
 73
     6
 74
     0
 42
0.00000001
 43
0.00000001
 40
0.0
 40
0.0
 40
0.0
 40
0.0
 40
0.3146003436806445
 40
0.6568370913735619
 40
1.0
 40
1.0
 40
1.0
 40
1.0
 10
3121.136659591312
 20
6661.631931189748
 30
0.0
 10
3121.13665959131
 20
6661.426507371016
 30
0.0
 10
3121.136659591306
 20
6660.997614058264
 30
0.0
 10
3121.136659591307
 20
6660.530248436614
 30
0.0
 10
3121.13665959131
 20
6660.366118051061
 30
0.0
 10
3121.136659591312
 20
6660.283941965939
 30
0.0
  0
SPLINE
  5
1A2
330
1F
100
AcDbEntity
  8
0
  6
Continuous
 62
     7
370
    25
100
AcDbSpline
210
0.0
220
0.0
230
1.0
 70
     8
 71
     3
 72
    14
 73
    10
 74
     0
 42
0.00000001
 43
0.00000001
 40
0.0
 40
0.0
 40
0.0
 40
0.0
 40
0.0773771172326565
 40
0.2397748499509007
 40
0.4021725826691418
 40
0.5645703153873924
 40
0.7269680481056277
 40
0.8627657414427707
 40
1.0
 40
1.0
 40
1.0
 40
1.0
 10
3054.636659591312
 20
6658.358709921575
 30
0.0
 10
3055.878900195476
 20
6658.407934338809
 30
0.0
 10
3059.728333530797
 20
6658.560470097163
 30
0.0
 10
3070.311737678826
 20
6658.819260070557
 30
0.0
 10
3084.600070993578
 20
6659.131594023749
 30
0.0
 10
3099.107935894723
 20
6659.443759180404
 30
0.0
 10
3110.606074852001
 20
6659.740620361769
 30
0.0
 10
3118.441305231222
 20
6660.015361553469
 30
0.0
 10
3120.23506217058
 20
6660.194101679732
 30
0.0
 10
3121.13665959131
 20
6660.283941965939
 30
0.0
  0
LINE
  5
1A3
330
1F
100
AcDbEntity
  8
0
  6
Continuous
 62
     7
370
    25
100
AcDbLine
 10
3121.1366595913
 20
6661.6319311897
 30
0.0
 11
3121.1366595913
 21
6662.2569312034
 31
0.0
  0
SPLINE
  5
1A4
330
1F
100
AcDbEntity
  8
0
  6
Continuous
 62
     7
370
    25
100
AcDbSpline
210
0.0
220
0.0
230
1.0
 70
     8
 71
     3
 72
    13
 73
     9
 74
     0
 42
0.00000001
 43
0.00000001
 40
0.0
 40
0.0
 40
0.0
 40
0.0
 40
0.0758590672188796
 40
0.2606456960163945
 40
0.4454323248139069
 40
0.6302189536114307
 40
0.8150055824089453
 40
1.0
 40
1.0
 40
1.0
 40
1.0
 10
3053.19201002462
 20
6654.940771903432
 30
0.0
 10
3054.282741816515
 20
6654.98353686784
 30
0.0
 10
3058.03040913551
 20
6655.130473869865
 30
0.0
 10
3069.312084617673
 20
6655.381564499822
 30
0.0
 10
3084.604096419854
 20
6655.694066007081
 30
0.0
 10
3100.091487250777
 20
6656.006566776839
 30
0.0
 10
3113.550928660899
 20
6656.319179322123
 30
0.0
 10
3118.60713554674
 20
6656.527641520576
 30
0.0
 10
3121.13665959131
 20
6656.631931189744
 30
0.0
  0
SPLINE
  5
1A5
330
1F
100
AcDbEntity
  8
0
  6
Continuous
 62
     7
370
    25
100
AcDbSpline
210
0.0
220
0.0
230
1.0
 70
    24
 71
     3
 72
    10
 73
     6
 74
     0
 42
0.00000001
 43
0.00000001
 40
0.0
 40
0.0
 40
0.0
 40
0.0
 40
0.3146003436805899
 40
0.6568370913735594
 40
1.0
 40
1.0
 40
1.0
 40
1.0
 10
3121.136659591312
 20
6656.631931189748
 30
0.0
 10
3121.13665959131
 20
6656.426507371018
 30
0.0
 10
3121.136659591306
 20
6655.997614058268
 30
0.0
 10
3121.136659591307
 20
6655.530248436613
 30
0.0
 10
3121.13665959131
 20
6655.366118051062
 30
0.0
 10
3121.136659591312
 20
6655.283941965939
 30
0.0
  0
SPLINE
  5
1A6
330
1F
100
AcDbEntity
  8
0
  6
Continuous
 62
     7
370
    25
100
AcDbSpline
210
0.0
220
0.0
230
1.0
 70
     8
 71
     3
 72
    15
 73
    11
 74
     0
 42
0.00000001
 43
0.00000001
 40
0.0
 40
0.0
 40
0.0
 40
0.0
 40
0.1147774881001137
 40
0.2283534879625976
 40
0.3641767439812981
 40
0.4999999999999945
 40
0.6358232560186816
 40
0.7716465120373507
 40
0.8852225118998748
 40
1.0
 40
1.0
 40
1.0
 40
1.0
 10
3048.136659591311
 20
6652.979189816047
 30
0.0
 10
3049.038425461998
 20
6653.069029972735
 30
0.0
 10
3050.83251753794
 20
6653.247769841311
 30
0.0
 10
3058.665092332897
 20
6653.522513074878
 30
0.0
 10
3070.175241844251
 20
6653.819365021398
 30
0.0
 10
3084.636659591311
 20
6654.131565890993
 30
0.0
 10
3099.09807733837
 20
6654.443766760589
 30
0.0
 10
3110.608226849725
 20
6654.740618707111
 30
0.0
 10
3118.440801644683
 20
6655.015361940675
 30
0.0
 10
3120.234893720624
 20
6655.194101809251
 30
0.0
 10
3121.13665959131
 20
6655.283941965939
 30
0.0
  0
SPLINE
  5
1A7
330
1F
100
AcDbEntity
  8
0
  6
Continuous
 62
     7
370
    25
100
AcDbSpline
210
0.0
220
0.0
230
1.0
 70
     8
 71
     3
 72
    14
 73
    10
 74
     0
 42
0.00000001
 43
0.00000001
 40
0.0
 40
0.0
 40
0.0
 40
0.0
 40
0.0773771172326565
 40
0.2397748499509008
 40
0.4021725826691416
 40
0.5645703153873923
 40
0.7269680481056279
 40
0.8627657414427707
 40
1.0
 40
1.0
 40
1.0
 40
1.0
 10
3054.636659591312
 20
6657.108709921575
 30
0.0
 10
3055.878900195476
 20
6657.157934338809
 30
0.0
 10
3059.728333530797
 20
6657.310470097163
 30
0.0
 10
3070.311737678826
 20
6657.569260070557
 30
0.0
 10
3084.600070993578
 20
6657.881594023749
 30
0.0
 10
3099.107935894723
 20
6658.193759180403
 30
0.0
 10
3110.606074852001
 20
6658.490620361769
 30
0.0
 10
3118.441305231222
 20
6658.76536155347
 30
0.0
 10
3120.23506217058
 20
6658.944101679731
 30
0.0
 10
3121.13665959131
 20
6659.033941965939
 30
0.0
  0
SPLINE
  5
1A8
330
1F
100
AcDbEntity
  8
0
  6
Continuous
 62
     7
370
    25
100
AcDbSpline
210
0.0
220
0.0
230
1.0
 70
    24
 71
     3
 72
    10
 73
     6
 74
     0
 42
0.00000001
 43
0.00000001
 40
0.0
 40
0.0
 40
0.0
 40
0.0
 40
0.312769195937756
 40
0.6224823689596071
 40
1.0
 40
1.0
 40
1.0
 40
1.0
 10
3121.136659591312
 20
6659.033941965939
 30
0.0
 10
3121.136659591312
 20
6658.913636153988
 30
0.0
 10
3121.136659591312
 20
6658.674200020902
 30
0.0
 10
3121.13665959131
 20
6658.086926404415
 30
0.0
 10
3121.136659591311
 20
6657.551214633865
 30
0.0
 10
3121.136659591312
 20
6657.256931203404
 30
0.0
  0
SPLINE
  5
1A9
330
1F
100
AcDbEntity
  8
0
  6
Continuous
 62
     7
370
    25
100
AcDbSpline
210
0.0
220
0.0
230
1.0
 70
     8
 71
     3
 72
    13
 73
     9
 74
     0
 42
0.00000001
 43
0.00000001
 40
0.0
 40
0.0
 40
0.0
 40
0.0
 40
0.0577090722781033
 40
0.2461248838753722
 40
0.434540695472638
 40
0.6229565070699148
 40
0.8113723186671835
 40
1.0
 40
1.0
 40
1.0
 40
1.0
 10
3054.084241043032
 20
6655.598347356379
 30
0.0
 10
3054.90929916683
 20
6655.630253721227
 30
0.0
 10
3058.428110454104
 20
6655.766331984712
 30
0.0
 10
3069.346257885848
 20
6656.006564384483
 30
0.0
 10
3084.594942890371
 20
6656.31906605529
 30
0.0
 10
3100.093928100534
 20
6656.631566781281
 30
0.0
 10
3113.550317647862
 20
6656.944179338086
 30
0.0
 10
3118.606931799443
 20
6657.152641535001
 30
0.0
 10
3121.13665959131
 20
6657.2569312034
 30
0.0
  0
LINE
  5
1AA
330
1F
100
AcDbEntity
  8
0
  6
Continuous
 62
     7
370
    25
100
AcDbLine
 10
3121.1366595913
 20
6656.6319311897
 30
0.0
 11
3121.1366595913
 21
6657.2569312034
 31
0.0
  0
LINE
  5
1AB
330
1F
100
AcDbEntity
  8
0
  6
Continuous
 62
     7
370
    25
100
AcDbLine
 10
3084.6366595913
 20
6645.0690658978
 30
0.0
 11
3050.1366595913
 21
6645.0690658978
 31
0.0
  0
LINE
  5
1AC
330
1F
100
AcDbEntity
  8
0
  6
Continuous
 62
     7
370
    25
100
AcDbLine
 10
3119.1366595913
 20
6645.0690658978
 30
0.0
 11
3084.6366595913
 21
6645.0690658978
 31
0.0
  0
SPLINE
  5
1AD
330
1F
100
AcDbEntity
  8
0
  6
Continuous
 62
     7
370
    25
100
AcDbSpline
210
0.0
220
0.0
230
1.0
 70
    24
 71
     3
 72
    12
 73
     8
 74
     0
 42
0.00000001
 43
0.00000001
 40
0.0
 40
0.0
 40
0.0
 40
0.0
 40
0.0855926390804691
 40
0.257077140003456
 40
0.4661637813496257
 40
0.8888928646532919
 40
0.9999999999999999
 40
0.9999999999999999
 40
0.9999999999999999
 40
0.9999999999999999
 10
3062.424264544948
 20
6647.362736522822
 30
0.0
 10
3061.769890210069
 20
6647.362736522822
 30
0.0
 10
3059.80447958236
 20
6647.362736522822
 30
0.0
 10
3056.591115075174
 20
6647.362736522823
 30
0.0
 10
3051.9330762601
 20
6647.362736522819
 30
0.0
 10
3049.099236480942
 20
6647.36273652284
 30
0.0
 10
3048.302486807134
 20
6647.362736522814
 30
0.0
 10
3048.13665959131
 20
6647.362736522808
 30
0.0
  0
SPLINE
  5
1AE
330
1F
100
AcDbEntity
  8
0
  6
Continuous
 62
     7
370
    25
100
AcDbSpline
210
0.0
220
0.0
230
1.0
 70
     8
 71
     3
 72
    16
 73
    12
 74
     0
 42
0.00000001
 43
0.00000001
 40
0.0
 40
0.0
 40
0.0
 40
0.0
 40
0.0660275383122471
 40
0.152093830951584
 40
0.3261074135356708
 40
0.4995776564146756
 40
0.5847399538171275
 40
0.6699022512161391
 40
0.7541806012643941
 40
0.9245331179304772
 40
1.0
 40
1.0
 40
1.0
 40
1.0
 10
3121.136659591305
 20
6648.353734111298
 30
0.0
 10
3120.643037117348
 20
6648.331866481644
 30
0.0
 10
3119.505982260739
 20
6648.281494596627
 30
0.0
 10
3115.742856665171
 20
6648.1718955851
 30
0.0
 10
3108.56599273856
 20
6648.0375278191
 30
0.0
 10
3099.115498478787
 20
6647.89070822521
 30
0.0
 10
3090.985373053984
 20
6647.775072772348
 30
0.0
 10
3084.791806358253
 20
6647.693679640317
 30
0.0
 10
3076.565598180236
 20
6647.585463389533
 30
0.0
 10
3068.78947609636
 20
6647.469967655094
 30
0.0
 10
3063.919388047558
 20
6647.387924025983
 30
0.0
 10
3062.424264544948
 20
6647.362736522822
 30
0.0
  0
SPLINE
  5
1AF
330
1F
100
AcDbEntity
  8
0
  6
Continuous
 62
     7
370
    25
100
AcDbSpline
210
0.0
220
0.0
230
1.0
 70
     8
 71
     3
 72
     9
 73
     5
 74
     0
 42
0.00000001
 43
0.00000001
 40
0.0
 40
0.0
 40
0.0
 40
0.0
 40
0.0189446726990829
 40
1.0
 40
1.0
 40
1.0
 40
1.0
 10
3121.136659591305
 20
6648.353734111298
 30
0.0
 10
3121.136659591307
 20
6648.33822070776
 30
0.0
 10
3121.136659591426
 20
6647.51934123783
 30
0.0
 10
3121.136659591368
 20
6647.39010470734
 30
0.0
 10
3121.136659591311
 20
6647.263316520622
 30
0.0
  0
SPLINE
  5
1B0
330
1F
100
AcDbEntity
  8
0
  6
Continuous
 62
     7
370
    25
100
AcDbSpline
210
0.0
220
0.0
230
1.0
 70
     8
 71
     3
 72
    13
 73
     9
 74
     0
 42
0.00000001
 43
0.00000001
 40
0.0
 40
0.0
 40
0.0
 40
0.0
 40
0.1558683150236845
 40
0.3099953561566935
 40
0.4974327109463164
 40
0.6848700657359142
 40
0.8416060004044892
 40
1.0
 40
1.0
 40
1.0
 40
1.0
 10
3062.424264544948
 20
6647.362736522822
 30
0.0
 10
3065.840522113216
 20
6647.451245257122
 30
0.0
 10
3072.63487272538
 20
6647.627273955498
 30
0.0
 10
3085.515080900108
 20
6647.898934690072
 30
0.0
 10
3099.091739244499
 20
6648.194094648014
 30
0.0
 10
3110.609610375172
 20
6648.490547133448
 30
0.0
 10
3118.440477887467
 20
6648.765378689545
 30
0.0
 10
3120.234785423669
 20
6648.944107411758
 30
0.0
 10
3121.13665959131
 20
6649.033941965939
 30
0.0
  0
SPLINE
  5
1B1
330
1F
100
AcDbEntity
  8
0
  6
Continuous
 62
     7
370
    25
100
AcDbSpline
210
0.0
220
0.0
230
1.0
 70
    24
 71
     3
 72
     9
 73
     5
 74
     0
 42
0.00000001
 43
0.00000001
 40
0.0
 40
0.0
 40
0.0
 40
0.0
 40
0.6417150329769872
 40
1.0
 40
1.0
 40
1.0
 40
1.0
 10
3121.136659591312
 20
6649.033941965939
 30
0.0
 10
3121.136659591313
 20
6648.916078372498
 30
0.0
 10
3121.136659591315
 20
6648.73240869455
 30
0.0
 10
3121.136659591307
 20
6648.453619933395
 30
0.0
 10
3121.136659591305
 20
6648.353734111298
 30
0.0
  0
LINE
  5
1B2
330
1F
100
AcDbEntity
  8
0
  6
Continuous
 62
     7
370
    25
100
AcDbLine
 10
3121.1366595913
 20
6660.2839419659
 30
0.0
 11
3121.1366595913
 21
6659.0339419659
 31
0.0
  0
LINE
  5
1B3
330
1F
100
AcDbEntity
  8
0
  6
Continuous
 62
     7
370
    25
100
AcDbLine
 10
3121.1366595913
 20
6655.2839419659
 30
0.0
 11
3121.1366595913
 21
6654.0339419659
 31
0.0
  0
LINE
  5
1B4
330
1F
100
AcDbEntity
  8
0
  6
Continuous
 62
     7
370
    25
100
AcDbLine
 10
3048.1366595913
 20
6651.729189816
 30
0.0
 11
3048.1366595913
 21
6652.979189816
 31
0.0
  0
LINE
  5
1B5
330
1F
100
AcDbEntity
  8
0
  6
Continuous
 62
     7
370
    25
100
AcDbLine
 10
3121.1366595913
 20
6650.2839419659
 30
0.0
 11
3121.1366595913
 21
6649.0339419659
 31
0.0
  0
LINE
  5
1B6
330
1F
100
AcDbEntity
  8
0
  6
Continuous
 62
     7
370
    25
100
AcDbLine
 10
3048.1366595913
 20
6647.3627365228
 30
0.0
 11
3048.1366595913
 21
6647.979189816
 31
0.0
  0
LINE
  5
1B7
330
1F
100
AcDbEntity
  8
0
  6
Continuous
 62
     7
370
    25
100
AcDbLine
 10
3048.1366595913
 20
6649.2183886249
 30
0.0
 11
3048.1366595913
 21
6650.0690658978
 31
0.0
  0
SPLINE
  5
1B8
330
1F
100
AcDbEntity
  8
0
  6
Continuous
 62
     7
370
    25
100
AcDbSpline
210
0.0
220
0.0
230
1.0
 70
     8
 71
     3
 72
    26
 73
    22
 74
     0
 42
0.00000001
 43
0.00000001
 40
0.0
 40
0.0
 40
0.0
 40
0.0
 40
0.0532718296237055
 40
0.106388994830381
 40
0.1601518544799419
 40
0.2141559821119746
 40
0.2673357362928927
 40
0.3197272446796319
 40
0.3725109979870971
 40
0.4261627726870634
 40
0.4801325896880044
 40
0.5334343255042334
 40
0.5863272021741592
 40
0.639744487211061
 40
0.6937695656801172
 40
0.7473745457619602
 40
0.7999505672301945
 40
0.8524283085479069
 40
0.9057879386767782
 40
0.9597890104585404
 40
1.0
 40
1.0
 40
1.0
 40
1.0
 10
3279.536295389811
 20
7906.720310643669
 30
0.0
 10
3280.198370280607
 20
7912.460025741189
 30
0.0
 10
3281.520597856267
 20
7923.922791787545
 30
0.0
 10
3290.936620351271
 20
7938.769525765139
 30
0.0
 10
3304.755152175954
 20
7949.956312357826
 30
0.0
 10
3322.04966780759
 20
7956.287869721114
 30
0.0
 10
3340.531597488449
 20
7957.135617213579
 30
0.0
 10
3358.095663745775
 20
7952.580863230798
 30
0.0
 10
3372.997922207992
 20
7943.089599846481
 30
0.0
 10
3383.709890427413
 20
7929.370992401243
 30
0.0
 10
3388.883857967341
 20
7912.721393989589
 30
0.0
 10
3387.882216910885
 20
7895.05985031952
 30
0.0
 10
3380.944081352371
 20
7878.411569099892
 30
0.0
 10
3368.791628805031
 20
7864.585124669683
 30
0.0
 10
3352.617303867829
 20
7855.322161802217
 30
0.0
 10
3334.335272312662
 20
7851.967944950942
 30
0.0
 10
3316.189626607998
 20
7854.859381561658
 30
0.0
 10
3300.038335952593
 20
7863.471610599047
 30
0.0
 10
3287.593652347457
 20
7876.831027578088
 30
0.0
 10
3280.505638749162
 20
7892.092718126454
 30
0.0
 10
3279.82624476805
 20
7902.343154409762
 30
0.0
 10
3279.536270173659
 20
7906.718180074145
 30
0.0
  0
ARC
  5
1B9
330
1F
100
AcDbEntity
  8
0
  6
Continuous
 62
     7
370
    25
100
AcDbCircle
 10
3281.2722380221
 20
7908.2338566692
 30
0.0
 40
2.304530301715365
100
AcDbArc
 50
221.1242681678
 51
277.6997483106
  0
SPLINE
  5
1BA
330
1F
100
AcDbEntity
  8
0
  6
Continuous
 62
     7
370
    25
100
AcDbSpline
210
0.0
220
0.0
230
1.0
 70
     8
 71
     3
 72
    26
 73
    22
 74
     0
 42
0.00000001
 43
0.00000001
 40
0.0
 40
0.0
 40
0.0
 40
0.0
 40
0.0526007249836203
 40
0.105173837906609
 40
0.1585107138608414
 40
0.2125544139269265
 40
0.2661954696397592
 40
0.3193050830194032
 40
0.3726653879441845
 40
0.4266147326626021
 40
0.4804082193813554
 40
0.533128282550904
 40
0.5852951686448093
 40
0.6381742280809922
 40
0.6920627831948226
 40
0.7459689382018071
 40
0.7992397351710816
 40
0.8523932839492184
 40
0.9061996264528317
 40
0.9601743473272014
 40
1.0
 40
1.0
 40
1.0
 40
1.0
 10
3281.581003214325
 20
7905.950104500564
 30
0.0
 10
3282.080078510902
 20
7900.438600622564
 30
0.0
 10
3283.077967121026
 20
7889.418486058235
 30
0.0
 10
3291.672836768559
 20
7874.251403583148
 30
0.0
 10
3304.548080925075
 20
7862.317382502416
 30
0.0
 10
3320.936694251596
 20
7855.15880925256
 30
0.0
 10
3338.756607474646
 20
7853.850531812391
 30
0.0
 10
3355.932225026555
 20
7858.490484673059
 30
0.0
 10
3370.662035216831
 20
7868.43724072069
 30
0.0
 10
3381.370627808968
 20
7882.543966922222
 30
0.0
 10
3386.729877706313
 20
7899.025268306934
 30
0.0
 10
3386.164190150336
 20
7915.71736751179
 30
0.0
 10
3379.940827661095
 20
7930.803281213966
 30
0.0
 10
3368.711965478536
 20
7942.985126717236
 30
0.0
 10
3353.49097262372
 20
7951.111407711627
 30
0.0
 10
3335.97545845819
 20
7954.264648425767
 30
0.0
 10
3318.312038808177
 20
7952.145585671613
 30
0.0
 10
3302.398454529118
 20
7945.023639939974
 30
0.0
 10
3290.019396894039
 20
7933.464346229385
 30
0.0
 10
3282.83747280842
 20
7919.744044945796
 30
0.0
 10
3281.955495962346
 20
7910.062651417508
 30
0.0
 10
3281.581027266659
 20
7905.952136699224
 30
0.0
  0
ARC
  5
1BB
330
1F
100
AcDbEntity
  8
0
  6
Continuous
 62
     7
370
    25
100
AcDbCircle
 10
3281.2723648685
 20
7908.2359657674
 30
0.0
 40
2.304592738187265
100
AcDbArc
 50
221.1222042707
 51
277.69695958
  0
LINE
  5
1BC
330
1F
100
AcDbEntity
  8
0
  6
Continuous
 62
     7
370
    25
100
AcDbLine
 10
3279.5362701737
 20
7906.7181800741
 30
0.0
 11
3279.5362953898
 21
7906.7203106437
 31
0.0
  0
LINE
  5
1BD
330
1F
100
AcDbEntity
  8
0
  6
Continuous
 62
     7
370
    25
100
AcDbLine
 10
3281.5810272667
 20
7905.9521366992
 30
0.0
 11
3281.5810032143
 21
7905.9501045006
 31
0.0
  0
ARC
  5
1BE
330
1F
100
AcDbEntity
  8
0
  6
Continuous
 62
     7
370
    25
100
AcDbCircle
 10
3338.8073505146
 20
7910.4953981878
 30
0.0
 40
49.63128885706812
100
AcDbArc
 50
2.6442660679
 51
23.1041561004
  0
ARC
  5
1BF
330
1F
100
AcDbEntity
  8
0
  6
Continuous
 62
     7
370
    25
100
AcDbCircle
 10
3328.4725526816
 20
7910.0372560761
 30
0.0
 40
49.52377979046834
100
AcDbArc
 50
164.6935919346
 51
182.6064447515
  0
ELLIPSE
  5
1C0
330
1F
100
AcDbEntity
  8
0
  6
Continuous
 62
     7
370
    25
100
AcDbEllipse
 10
3339.9390070219
 20
8119.2756964531
 30
0.0
 11
85.00249639079402
 21
0.744859499629456
 31
0.0
210
0.0
220
0.0
230
1.0
 40
0.4174252713
 41
4.846912385230519
 42
6.189904194651816
  0
ELLIPSE
  5
1C1
330
1F
100
AcDbEntity
  8
0
  6
Continuous
 62
     7
370
    25
100
AcDbEllipse
 10
3339.9390070219
 20
8119.2756964531
 30
0.0
 11
85.00249639079402
 21
0.744859499629456
 31
0.0
210
0.0
220
0.0
230
1.0
 40
0.4174252713
 41
3.234785475595793
 42
4.551722630524972
  0
LWPOLYLINE
  5
1C2
330
1F
100
AcDbEntity
  8
0
  6
Continuous
 62
     7
370
    25
100
AcDbPolyline
 90
       10
 70
   128
 43
0.0
 10
3351.5694751177
 20
8098.4011157507
 10
3350.6847522534
 20
8099.9684483185
 10
3348.0329752094
 20
8101.3554398218
 10
3344.0166153019
 20
8102.2821979153
 10
3339.2471269184
 20
8102.6076320803
 10
3334.4506214297
 20
8102.2821979153
 10
3330.3573233161
 20
8101.3554398218
 10
3327.5904001095
 20
8099.9684483185
 10
3326.571090786
 20
8098.3323802887
 10
3326.5698530857
 20
8098.2636448267
  0
LWPOLYLINE
  5
1C3
330
1F
100
AcDbEntity
  8
0
  6
Continuous
 62
     7
370
    25
100
AcDbPolyline
 90
       34
 70
   128
 43
0.0
 10
3339.3039150197
 20
8103.9757126536
 10
3330.1387203741
 20
8104.2754790069
 10
3321.3296659408
 20
8105.1639437297
 10
3313.1951338987
 20
8106.6089953921
 10
3306.0291274301
 20
8108.5584060619
 10
3300.0906446797
 20
8110.9417189585
 10
3295.5943178865
 20
8113.672794944
 10
3292.7026560161
 20
8116.6529258166
 10
3291.5201712625
 20
8119.7744018819
 10
3292.0896017057
 20
8122.924404862
 10
3294.3903666457
 20
8125.9890854419
 10
3298.3393104432
 20
8128.8576780805
 10
3303.7937079804
 20
8131.4265043659
 10
3310.5564231189
 20
8133.602720223
 10
3318.3830337136
 20
8135.3076715407
 10
3326.9906656657
 20
8136.4797369361
 10
3336.0682167292
 20
8137.0765549122
 10
3345.2876005576
 20
8137.0765549122
 10
3354.3156045984
 20
8136.4797369361
 10
3362.8259332632
 20
8135.3076715407
 10
3370.5110011008
 20
8133.602720223
 10
3377.0930497361
 20
8131.4265043659
 10
3382.3341867822
 20
8128.8576780805
 10
3386.0449838907
 20
8125.9890854419
 10
3388.0913231854
 20
8122.924404862
 10
3388.3992446328
 20
8119.7744018819
 10
3386.9576191494
 20
8116.6529258166
 10
3383.8185508362
 20
8113.672794944
 10
3379.095493801
 20
8110.9417189585
 10
3372.9591516307
 20
8108.5584060619
 10
3365.6313077194
 20
8106.6089953921
 10
3357.3768094387
 20
8105.1639437297
 10
3348.4939958633
 20
8104.2754790069
 10
3339.3039150197
 20
8103.9757126536
  0
LINE
  5
1C4
330
1F
100
AcDbEntity
  8
0
  6
Continuous
 62
     7
370
    25
100
AcDbLine
 10
3339.3174596157
 20
8105.8982817998
 30
0.0
 11
3348.4835379561
 21
8106.2061444953
 31
0.0
  0
ARC
  5
1C5
330
1F
100
AcDbEntity
  8
0
  6
Continuous
 62
     7
370
    25
100
AcDbCircle
 10
3350.533015655
 20
8175.4254018376
 30
0.0
 40
68.4945457799989
100
AcDbArc
 50
280.8171187706
 51
292.8404378283
  0
ARC
  5
1C6
330
1F
100
AcDbEntity
  8
0
  6
Continuous
 62
     7
370
    25
100
AcDbCircle
 10
3380.1533555552
 20
8122.2176639989
 30
0.0
 40
6.736420746240339
100
AcDbArc
 50
312.969984486
 51
51.0348729891
  0
ARC
  5
1C7
330
1F
100
AcDbEntity
  8
0
  6
Continuous
 62
     7
370
    25
100
AcDbCircle
 10
3299.721673134
 20
8121.8103791805
 30
0.0
 40
6.65003150882414
100
AcDbArc
 50
129.1595332411
 51
221.0612063067
  0
ARC
  5
1C8
330
1F
100
AcDbEntity
  8
0
  6
Continuous
 62
     7
370
    25
100
AcDbCircle
 10
3327.0443183992
 20
8169.165895717
 30
0.0
 40
62.10292084328918
100
AcDbArc
 50
245.7148432112
 51
258.4556221378
  0
LWPOLYLINE
  5
1C9
330
1F
100
AcDbEntity
  8
0
  6
Continuous
 62
     7
370
    25
100
AcDbPolyline
 90
        3
 70
   128
 43
0.0
 10
3329.3589534219
 20
8106.2644758195
 10
3330.1620822279
 20
8106.2071573938
 10
3339.3174596157
 20
8105.8982817998
  0
LWPOLYLINE
  5
1CA
330
1F
100
AcDbEntity
  8
0
  6
Continuous
 62
     7
370
    25
100
AcDbPolyline
 90
       17
 70
   128
 43
0.0
 10
3339.2665694478
 20
8084.4529104999
 10
3336.3886661546
 20
8084.2576500009
 10
3333.9326872865
 20
8083.7015951448
 10
3332.2725333625
 20
8082.8694002429
 10
3331.6609477684
 20
8081.887759425
 10
3332.1910388668
 20
8080.9061186071
 10
3333.7821050932
 20
8080.0739237051
 10
3336.1919210377
 20
8079.517868849
 10
3339.0536140678
 20
8079.32260835
 10
3341.931517361
 20
8079.517868849
 10
3344.3874962292
 20
8080.0739237051
 10
3346.0476501531
 20
8080.9061186071
 10
3346.6592357472
 20
8081.887759425
 10
3346.1291446489
 20
8082.8694002429
 10
3344.5380784225
 20
8083.7015951448
 10
3342.128262478
 20
8084.2576500009
 10
3339.2665694478
 20
8084.4529104999
  0
LWPOLYLINE
  5
1CB
330
1F
100
AcDbEntity
  8
0
  6
Continuous
 62
     7
370
    25
100
AcDbPolyline
 90
       17
 70
   128
 43
0.0
 10
3339.3375545745
 20
8086.1630112165
 10
3334.5410490858
 20
8085.8375770515
 10
3330.4477509722
 20
8084.9108189581
 10
3327.6808277657
 20
8083.5238274548
 10
3326.6615184421
 20
8081.887759425
 10
3327.5450036061
 20
8080.2516913951
 10
3330.1967806501
 20
8078.8646998919
 10
3334.2131405576
 20
8077.9379417984
 10
3338.9826289412
 20
8077.6125076334
 10
3343.7791344298
 20
8077.9379417984
 10
3347.8724325434
 20
8078.8646998919
 10
3350.63935575
 20
8080.2516913951
 10
3351.6586650735
 20
8081.887759425
 10
3350.7751799096
 20
8083.5238274548
 10
3348.1234028656
 20
8084.9108189581
 10
3344.107042958
 20
8085.8375770515
 10
3339.3375545745
 20
8086.1630112165
  0
LINE
  5
1CC
330
1F
100
AcDbEntity
  8
0
  6
Continuous
 62
     7
370
    25
100
AcDbLine
 10
3460.1700554753
 20
8166.0626446319
 30
0.0
 11
3459.1801045412
 21
8124.284978155
 31
0.0
  0
SPLINE
  5
1CD
330
1F
100
AcDbEntity
  8
0
  6
Continuous
 62
     7
370
    25
100
AcDbSpline
210
0.0
220
0.0
230
1.0
 70
     8
 71
     3
 72
     9
 73
     5
 74
     0
 42
0.00000001
 43
0.00000001
 40
0.0
 40
0.0
 40
0.0
 40
0.0
 40
0.9979593022773109
 40
1.0
 40
1.0
 40
1.0
 40
1.0
 10
3459.175516032824
 20
8124.338680492986
 30
0.0
 10
3459.177047421621
 20
8124.321037937866
 30
0.0
 10
3459.178581941908
 20
8124.303359306003
 30
0.0
 10
3459.180116601155
 20
8124.285655402145
 30
0.0
 10
3459.18011973293
 20
8124.285619273829
 30
0.0
  0
SPLINE
  5
1CE
330
1F
100
AcDbEntity
  8
0
  6
Continuous
 62
     7
370
    25
100
AcDbSpline
210
0.0
220
0.0
230
1.0
 70
     8
 71
     3
 72
    13
 73
     9
 74
     0
 42
0.00000001
 43
0.00000001
 40
0.0
 40
0.0
 40
0.0
 40
0.0
 40
0.000002055858266
 40
0.1810664821460415
 40
0.3621245619662144
 40
0.5921569688802928
 40
0.8224161489386869
 40
1.0
 40
1.0
 40
1.0
 40
1.0
 10
3451.493018148436
 20
8080.832570077014
 30
0.0
 10
3451.493021547188
 20
8080.832645635569
 30
0.0
 10
3451.792361335037
 20
8087.487346431228
 30
0.0
 10
3452.386214491604
 20
8099.872114525113
 30
0.0
 10
3453.322506011625
 20
8116.571726212384
 30
0.0
 10
3454.293708820412
 20
8129.677166135614
 30
0.0
 10
3455.231710316947
 20
8138.176803796297
 30
0.0
 10
3455.819170971152
 20
8139.863985144121
 30
0.0
 10
3456.074964296918
 20
8140.598621115129
 30
0.0
  0
LINE
  5
1CF
330
1F
100
AcDbEntity
  8
0
  6
Continuous
 62
     7
370
    25
100
AcDbLine
 10
3451.4930181486
 20
8080.8325700806
 30
0.0
 11
3452.6977942307
 21
8109.8567972414
 31
0.0
  0
LWPOLYLINE
  5
1D0
330
1F
100
AcDbEntity
  8
0
  6
Continuous
 62
     7
370
    25
100
AcDbPolyline
 90
       17
 70
   128
 43
0.0
 10
3452.6977942307
 20
8109.8567972414
 10
3450.8479764986
 20
8117.3633394799
 10
3444.7464277554
 20
8124.5814095098
 10
3434.6276270974
 20
8131.233620948
 10
3420.8804343594
 20
8137.0643330393
 10
3404.0331464486
 20
8141.8494747881
 10
3384.7331951915
 20
8145.4051558805
 10
3363.7222668913
 20
8147.5947334861
 10
3341.8077997395
 20
8148.3340633656
 10
3319.8319544191
 20
8147.5947334861
 10
3298.6392503414
 20
8145.4051558805
 10
3279.0441112392
 20
8141.8494747881
 10
3261.799567319
 20
8137.0643330393
 10
3247.568316733
 20
8131.233620948
 10
3236.8972584601
 20
8124.5814095098
 10
3230.1964752853
 20
8117.3633394799
 10
3227.7234745482
 20
8109.8567972414
  0
LINE
  5
1D1
330
1F
100
AcDbEntity
  8
0
  6
Continuous
 62
     7
370
    25
100
AcDbLine
 10
3227.7234745482
 20
8109.8567972414
 30
0.0
 11
3226.5186984659
 21
8080.832570077
 31
0.0
  0
LWPOLYLINE
  5
1D2
330
1F
100
AcDbEntity
  8
0
  6
Continuous
 62
     7
370
    25
100
AcDbPolyline
 90
        8
 70
   128
 43
0.0
 10
3218.7635897627
 20
8139.2431097854
 10
3219.5910442684
 20
8137.6842549698
 10
3221.5865179259
 20
8128.8552573165
 10
3223.5518448575
 20
8114.5711870075
 10
3225.061794914
 20
8099.3292306646
 10
3226.5186823451
 20
8080.8327967526
 10
3226.5186984659
 20
8080.832570077
 10
3226.5186984659
 20
8080.832570077
  0
SPLINE
  5
1D3
330
1F
100
AcDbEntity
  8
0
  6
Continuous
 62
     7
370
    25
100
AcDbSpline
210
0.0
220
0.0
230
1.0
 70
     8
 71
     3
 72
     9
 73
     5
 74
     0
 42
0.00000001
 43
0.00000001
 40
0.0
 40
0.0
 40
0.0
 40
0.0
 40
0.0020406977229375
 40
1.0
 40
1.0
 40
1.0
 40
1.0
 10
3211.856584614197
 20
8124.285619273829
 30
0.0
 10
3211.856590560171
 20
8124.285655402145
 30
0.0
 10
3211.859504256813
 20
8124.303359305965
 30
0.0
 10
3211.862418110512
 20
8124.321037937847
 30
0.0
 10
3211.865326017917
 20
8124.338680492986
 30
0.0
  0
LINE
  5
1D4
330
1F
100
AcDbEntity
  8
0
  6
Continuous
 62
     7
370
    25
100
AcDbLine
 10
3211.8566085745
 20
8124.284978155
 30
0.0
 11
3210.295269145
 21
8166.0626446291
 31
0.0
  0
ELLIPSE
  5
1D5
330
1F
100
AcDbEntity
  8
0
  6
Continuous
 62
     7
370
    25
100
AcDbEllipse
 10
3340.1041566995
 20
8107.2916461665
 30
0.0
 11
87.5011568596824
 21
0.654955812668959
 31
0.0
210
0.0
220
0.0
230
1.0
 40
0.3908033208
 41
0.0
 42
6.283185307179586
  0
SPLINE
  5
1D6
330
1F
100
AcDbEntity
  8
0
  6
Continuous
 62
     7
370
    25
100
AcDbSpline
210
0.0
220
0.0
230
1.0
 70
     8
 71
     3
 72
    10
 73
     6
 74
     0
 42
0.00000001
 43
0.00000001
 40
0.0
 40
0.0
 40
0.0
 40
0.0
 40
0.3605689837777471
 40
0.7204241999981927
 40
1.0
 40
1.0
 40
1.0
 40
1.0
 10
3449.447464568327
 20
8079.385137388922
 30
0.0
 10
3449.870241029181
 20
8079.524602786901
 30
0.0
 10
3450.714957039964
 20
8079.803257502879
 30
0.0
 10
3451.366236305224
 20
8080.328261424143
 30
0.0
 10
3451.454449190495
 20
8080.679151742585
 30
0.0
 10
3451.493018148436
 20
8080.832570077014
 30
0.0
  0
ARC
  5
1D7
330
1F
100
AcDbEntity
  8
0
  6
Continuous
 62
     7
370
    25
100
AcDbCircle
 10
3338.9457819704
 20
8528.7279430569
 30
0.0
 40
462.7305439218876
100
AcDbArc
 50
256.1840699723
 51
283.8159292285
  0
SPLINE
  5
1D8
330
1F
100
AcDbEntity
  8
0
  6
Continuous
 62
     7
370
    25
100
AcDbSpline
210
0.0
220
0.0
230
1.0
 70
     8
 71
     3
 72
    10
 73
     6
 74
     0
 42
0.00000001
 43
0.00000001
 40
0.0
 40
0.0
 40
0.0
 40
0.0
 40
0.3887479228133152
 40
0.7781092624589823
 40
1.0
 40
1.0
 40
1.0
 40
1.0
 10
3226.51869846594
 20
8080.832570077014
 30
0.0
 10
3226.570494779187
 20
8080.61870785585
 30
0.0
 10
3226.674169136614
 20
8080.190645954005
 30
0.0
 10
3227.464543316821
 20
8079.692637426916
 30
0.0
 10
3228.183206187105
 20
8079.467033804541
 30
0.0
 10
3228.444088137912
 20
8079.385137388922
 30
0.0
  0
SPLINE
  5
1D9
330
1F
100
AcDbEntity
  8
0
  6
Continuous
 62
     7
370
    25
100
AcDbSpline
210
0.0
220
0.0
230
1.0
 70
     8
 71
     3
 72
    14
 73
    10
 74
     0
 42
0.00000001
 43
0.00000001
 40
0.0
 40
0.0
 40
0.0
 40
0.0
 40
0.1412502438197819
 40
0.313451737243862
 40
0.4855126336229819
 40
0.6156611601608255
 40
0.7457038329315594
 40
0.8768395909706805
 40
0.9999999999999999
 40
0.9999999999999999
 40
0.9999999999999999
 40
0.9999999999999999
 10
3254.309640629478
 20
8111.764395557109
 30
0.0
 10
3255.352172917736
 20
8109.919216052365
 30
0.0
 10
3257.665680831422
 20
8105.82453482812
 30
0.0
 10
3265.218450827873
 20
8099.879390746039
 30
0.0
 10
3275.248241219222
 20
8094.589994562767
 30
0.0
 10
3286.802614526252
 20
8090.424506697574
 30
0.0
 10
3298.932254122893
 20
8087.304493303329
 30
0.0
 10
3312.304900182804
 20
8084.963101050942
 30
0.0
 10
3321.968651120078
 20
8084.228557208546
 30
0.0
 10
3326.648987170411
 20
8083.87280383199
 30
0.0
  0
SPLINE
  5
1DA
330
1F
100
AcDbEntity
  8
0
  6
Continuous
 62
     7
370
    25
100
AcDbSpline
210
0.0
220
0.0
230
1.0
 70
     8
 71
     3
 72
    17
 73
    13
 74
     0
 42
0.00000001
 43
0.00000001
 40
0.0
 40
0.0
 40
0.0
 40
0.0
 40
0.0157441961813946
 40
0.1164471891685763
 40
0.2172009679624284
 40
0.3255177453688741
 40
0.4338942077618488
 40
0.5593810504804325
 40
0.6849266053493308
 40
0.8310293504845705
 40
0.9771719301451978
 40
1.0
 40
1.0
 40
1.0
 40
1.0
 10
3351.648803815273
 20
8083.974883658392
 30
0.0
 10
3352.27520679256
 20
8083.998238282483
 30
0.0
 10
3356.908207115447
 20
8084.170973701802
 30
0.0
 10
3365.220262036846
 20
8085.187832569717
 30
0.0
 10
3376.507755466693
 20
8086.973019532639
 30
0.0
 10
3387.089330965206
 20
8089.456064909722
 30
0.0
 10
3397.302878250829
 20
8092.629733599551
 30
0.0
 10
3406.507985723422
 20
8096.464173653598
 30
0.0
 10
3414.900802260288
 20
8101.135225859876
 30
0.0
 10
3421.280678493444
 20
8106.443229825313
 30
0.0
 10
3425.049786192394
 20
8110.615434996882
 30
0.0
 10
3425.656917957317
 20
8112.918113882879
 30
0.0
 10
3425.738941944207
 20
8113.229207641549
 30
0.0
  0
SPLINE
  5
1DB
330
1F
100
AcDbEntity
  8
0
  6
Continuous
 62
     7
370
    25
100
AcDbSpline
210
0.0
220
0.0
230
1.0
 70
     8
 71
     3
 72
    11
 73
     7
 74
     0
 42
0.00000001
 43
0.00000001
 40
0.0
 40
0.0
 40
0.0
 40
0.0
 40
0.2500000425549488
 40
0.5000000567396674
 40
0.7500000425542629
 40
1.0
 40
1.0
 40
1.0
 40
1.0
 10
3213.520353186007
 20
8121.029085025681
 30
0.0
 10
3213.28355588224
 20
8121.25427285314
 30
0.0
 10
3212.809961301579
 20
8121.704648482504
 30
0.0
 10
3212.303231982332
 20
8122.52465052998
 30
0.0
 10
3211.956816535643
 20
8123.409761928382
 30
0.0
 10
3211.895869651809
 20
8124.02772913852
 30
0.0
 10
3211.865396211621
 20
8124.336712726059
 30
0.0
  0
LINE
  5
1DC
330
1F
100
AcDbEntity
  8
0
  6
Continuous
 62
     7
370
    25
100
AcDbLine
 10
3457.5580925573
 20
8121.0266286211
 30
0.0
 11
3453.5062186202
 21
8118.2012143803
 31
0.0
  0
LINE
  5
1DD
330
1F
100
AcDbEntity
  8
0
  6
Continuous
 62
     7
370
    25
100
AcDbLine
 10
3223.6019941674
 20
8114.0649625868
 30
0.0
 11
3213.5231846423
 21
8121.0266286211
 31
0.0
  0
SPLINE
  5
1DE
330
1F
100
AcDbEntity
  8
0
  6
Continuous
 62
     7
370
    25
100
AcDbSpline
210
0.0
220
0.0
230
1.0
 70
     8
 71
     3
 72
    10
 73
     6
 74
     0
 42
0.00000001
 43
0.00000001
 40
0.0
 40
0.0
 40
0.0
 40
0.0
 40
0.4283131449578381
 40
0.6964609841899412
 40
1.0
 40
1.0
 40
1.0
 40
1.0
 10
3459.175514813817
 20
8124.338694530455
 30
0.0
 10
3459.105423239924
 20
8123.806723511512
 30
0.0
 10
3458.991450444291
 20
8122.941709061749
 30
0.0
 10
3458.36349937137
 20
8121.819119782786
 30
0.0
 10
3457.835584078504
 20
8121.299951055146
 30
0.0
 10
3457.555285717585
 20
8121.024296711798
 30
0.0
  0
SPLINE
  5
1DF
330
1F
100
AcDbEntity
  8
0
  6
Continuous
 62
     7
370
    25
100
AcDbSpline
210
0.0
220
0.0
230
1.0
 70
     8
 71
     3
 72
    21
 73
    17
 74
     0
 42
0.00000001
 43
0.00000001
 40
0.0
 40
0.0
 40
0.0
 40
0.0
 40
0.0000007106391667
 40
0.0965453192674226
 40
0.1930868990282954
 40
0.2908693950203619
 40
0.388760369817807
 40
0.4864559876876896
 40
0.5811855983251228
 40
0.6761236494902206
 40
0.7705574714784799
 40
0.8374129811940999
 40
0.9045194722820789
 40
0.9712852454281726
 40
0.9999992893608336
 40
1.0
 40
1.0
 40
1.0
 40
1.0
 10
3192.853218772821
 20
7766.249228967407
 30
0.0
 10
3192.853223126445
 20
7766.249328857101
 30
0.0
 10
3193.444693558837
 20
7779.820045089993
 30
0.0
 10
3194.591540086741
 20
7806.955684915422
 30
0.0
 10
3196.261932890621
 20
7847.627980533945
 30
0.0
 10
3197.930893586289
 20
7888.119305310772
 30
0.0
 10
3199.620595148743
 20
7928.150397515656
 30
0.0
 10
3201.331590803898
 20
7966.809866998366
 30
0.0
 10
3203.078360167649
 20
8003.722152834259
 30
0.0
 10
3204.885704043379
 20
8038.257229141223
 30
0.0
 10
3206.608983090143
 20
8066.857960122793
 30
0.0
 10
3208.223103444468
 20
8089.310781871181
 30
0.0
 10
3209.692680709501
 20
8106.317318113961
 30
0.0
 10
3210.914720458052
 20
8117.518018520262
 30
0.0
 10
3211.638581889781
 20
8122.805798867487
 30
0.0
 10
3211.856627134634
 20
8124.284300549382
 30
0.0
 10
3211.856632530866
 20
8124.284337139674
 30
0.0
  0
SPLINE
  5
1E0
330
1F
100
AcDbEntity
  8
0
  6
Continuous
 62
     7
370
    25
100
AcDbSpline
210
0.0
220
0.0
230
1.0
 70
     8
 71
     3
 72
    11
 73
     7
 74
     0
 42
0.00000001
 43
0.00000001
 40
0.0
 40
0.0
 40
0.0
 40
0.0
 40
0.2499998055689586
 40
0.4999997378151414
 40
0.7499998006599783
 40
1.0
 40
1.0
 40
1.0
 40
1.0
 10
3211.856584637179
 20
8124.285619413468
 30
0.0
 10
3211.886613734765
 20
8123.972652624744
 30
0.0
 10
3211.946671945153
 20
8123.346718888713
 30
0.0
 10
3212.292761143081
 20
8122.450390443525
 30
0.0
 10
3212.799847386097
 20
8121.620376687275
 30
0.0
 10
3213.27425780719
 20
8121.165117204706
 30
0.0
 10
3213.511463082491
 20
8120.937487401282
 30
0.0
  0
SPLINE
  5
1E1
330
1F
100
AcDbEntity
  8
0
  6
Continuous
 62
     7
370
    25
100
AcDbSpline
210
0.0
220
0.0
230
1.0
 70
     8
 71
     3
 72
    20
 73
    16
 74
     0
 42
0.00000001
 43
0.00000001
 40
0.0
 40
0.0
 40
0.0
 40
0.0
 40
0.0285136227561447
 40
0.0948803407944446
 40
0.1615882104413654
 40
0.2280451067586041
 40
0.3224438291309424
 40
0.4173503070575607
 40
0.5120496628437625
 40
0.6100815622303927
 40
0.7083099767151547
 40
0.8064303115316206
 40
0.9032135496490558
 40
0.9999992815076063
 40
1.0
 40
1.0
 40
1.0
 40
1.0
 10
3213.51138724053
 20
8120.937552700154
 30
0.0
 10
3213.294348511178
 20
8119.416758220945
 30
0.0
 10
3212.572142540276
 20
8114.356247331123
 30
0.0
 10
3211.359830766417
 20
8103.228962055059
 30
0.0
 10
3209.914884036227
 20
8086.514229528521
 30
0.0
 10
3208.345056779457
 20
8064.338671094046
 30
0.0
 10
3206.689481823612
 20
8036.054906168076
 30
0.0
 10
3204.966703858435
 20
8001.856938574898
 30
0.0
 10
3203.312675895801
 20
7965.271817987132
 30
0.0
 10
3201.701090172794
 20
7926.91690541258
 30
0.0
 10
3200.114814622958
 20
7887.160318752579
 30
0.0
 10
3198.547045126425
 20
7846.967221635093
 30
0.0
 10
3196.970121880566
 20
7806.615374515457
 30
0.0
 10
3195.869636596131
 20
7779.70603665471
 30
0.0
 10
3195.29451785988
 20
7766.249328863024
 30
0.0
 10
3195.294513590497
 20
7766.249228967407
 30
0.0
  0
SPLINE
  5
1E2
330
1F
100
AcDbEntity
  8
0
  6
Continuous
 62
     7
370
    25
100
AcDbSpline
210
0.0
220
0.0
230
1.0
 70
    24
 71
     3
 72
    10
 73
     6
 74
     0
 42
0.00000001
 43
0.00000001
 40
0.0
 40
0.0
 40
0.0
 40
0.0
 40
0.3317097585614573
 40
0.6634278230378602
 40
1.0
 40
1.0
 40
1.0
 40
1.0
 10
3195.294513590497
 20
7766.249228967407
 30
0.0
 10
3194.841397043193
 20
7766.249228967407
 30
0.0
 10
3193.935152602677
 20
7766.249228967407
 30
0.0
 10
3193.053000576481
 20
7766.249228967407
 30
0.0
 10
3192.920134397631
 20
7766.249228967407
 30
0.0
 10
3192.853218772821
 20
7766.249228967407
 30
0.0
  0
SPLINE
  5
1E3
330
1F
100
AcDbEntity
  8
0
  6
Continuous
 62
     7
370
    25
100
AcDbSpline
210
0.0
220
0.0
230
1.0
 70
     8
 71
     3
 72
    25
 73
    21
 74
     0
 42
0.00000001
 43
0.00000001
 40
0.0
 40
0.0
 40
0.0
 40
0.0
 40
0.0686794534654355
 40
0.1372666435183826
 40
0.2082823173104445
 40
0.2451938088048802
 40
0.2820932172033759
 40
0.3531977453519812
 40
0.4202142339719154
 40
0.4875920042548514
 40
0.5592778030019214
 40
0.596257607135881
 40
0.6332212938054255
 40
0.7025630180789992
 40
0.7683866073243618
 40
0.8369687248103584
 40
0.9101418771939582
 40
0.9465563166946452
 40
0.9829599449967072
 40
1.0
 40
1.0
 40
1.0
 40
1.0
 10
3333.660814039893
 20
7853.060663665742
 30
0.0
 10
3339.631384227898
 20
7853.667498797524
 30
0.0
 10
3351.564503789061
 20
7854.880353843768
 30
0.0
 10
3367.56482423473
 20
7864.188819354482
 30
0.0
 10
3378.083695760808
 20
7875.568513932561
 30
0.0
 10
3384.117101973337
 20
7886.54895943916
 30
0.0
 10
3388.277182170352
 20
7898.253076393986
 30
0.0
 10
3389.586740319442
 20
7913.148252643489
 30
0.0
 10
3385.23767782229
 20
7929.289779270118
 30
0.0
 10
3375.812892608525
 20
7942.591716866161
 30
0.0
 10
3364.114184926521
 20
7950.738729528406
 30
0.0
 10
3352.796514194909
 20
7955.06149691922
 30
0.0
 10
3340.855828939294
 20
7957.672009213925
 30
0.0
 10
3325.613209873919
 20
7957.743441082868
 30
0.0
 10
3308.639018254733
 20
7953.209101194368
 30
0.0
 10
3294.097304625534
 20
7944.343272277417
 30
0.0
 10
3284.986603139713
 20
7933.268670989515
 30
0.0
 10
3280.729968687709
 20
7922.490284342703
 30
0.0
 10
3278.744810666441
 20
7915.401302710023
 30
0.0
 10
3279.183760883208
 20
7910.940751768764
 30
0.0
 10
3279.323716353618
 20
7909.518543779285
 30
0.0
  0
SPLINE
  5
1E4
330
1F
100
AcDbEntity
  8
0
  6
Continuous
 62
     7
370
    25
100
AcDbSpline
210
0.0
220
0.0
230
1.0
 70
     8
 71
     3
 72
    13
 73
     9
 74
     0
 42
0.00000001
 43
0.00000001
 40
0.0
 40
0.0
 40
0.0
 40
0.0
 40
0.1136012598994964
 40
0.3195139978946842
 40
0.5363406362583586
 40
0.7628059597226958
 40
0.8814170558346808
 40
1.0
 40
1.0
 40
1.0
 40
1.0
 10
3279.532314341061
 20
7906.051548646274
 30
0.0
 10
3279.561918311408
 20
7902.984355415839
 30
0.0
 10
3279.645182202382
 20
7894.357592189456
 30
0.0
 10
3285.933136825831
 20
7880.277334287548
 30
0.0
 10
3297.400152787129
 20
7865.953987742267
 30
0.0
 10
3311.1199029284
 20
7857.459554374051
 30
0.0
 10
3323.660654889211
 20
7853.639587684995
 30
0.0
 10
3330.327691420768
 20
7853.253623069112
 30
0.0
 10
3333.660814039893
 20
7853.060663665742
 30
0.0
  0
SPLINE
  5
1E5
330
1F
100
AcDbEntity
  8
0
  6
Continuous
 62
     7
370
    25
100
AcDbSpline
210
0.0
220
0.0
230
1.0
 70
     8
 71
     3
 72
     9
 73
     5
 74
     0
 42
0.00000001
 43
0.00000001
 40
0.0
 40
0.0
 40
0.0
 40
0.0
 40
0.9987531813385835
 40
0.9999999999999999
 40
0.9999999999999999
 40
0.9999999999999999
 40
0.9999999999999999
 10
3457.563073673494
 20
8120.937487401282
 30
0.0
 10
3457.560480826434
 20
8120.96641077727
 30
0.0
 10
3457.557884742529
 20
8120.995370260483
 30
0.0
 10
3457.555288954063
 20
8121.024260690671
 30
0.0
 10
3457.555285717585
 20
8121.024296711798
 30
0.0
  0
SPLINE
  5
1E6
330
1F
100
AcDbEntity
  8
0
  6
Continuous
 62
     7
370
    25
100
AcDbSpline
210
0.0
220
0.0
230
1.0
 70
     8
 71
     3
 72
    20
 73
    16
 74
     0
 42
0.00000001
 43
0.00000001
 40
0.0
 40
0.0
 40
0.0
 40
0.0
 40
0.0000007184923928
 40
0.0967864503509429
 40
0.193569688468378
 40
0.2916900232848445
 40
0.3899184377696072
 40
0.487950337156238
 40
0.5826496929424398
 40
0.6775561708690582
 40
0.7719548932413965
 40
0.8384117895586327
 40
0.9051196592055502
 40
0.9714863772438476
 40
1.0
 40
1.0
 40
1.0
 40
1.0
 10
3470.50676619324
 20
7766.249228967407
 30
0.0
 10
3470.506761974878
 20
7766.249328863024
 30
0.0
 10
3469.938516161126
 20
7779.706036655561
 30
0.0
 10
3468.876562424705
 20
7806.615374515061
 30
0.0
 10
3467.433419123779
 20
7846.967221635199
 30
0.0
 10
3466.078079163161
 20
7887.16031875255
 30
0.0
 10
3464.793109026388
 20
7926.916905412588
 30
0.0
 10
3463.576624977139
 20
7965.27181798713
 30
0.0
 10
3462.416713463277
 20
8001.856938574898
 30
0.0
 10
3461.296520447667
 20
8036.054906168076
 30
0.0
 10
3460.299509994853
 20
8064.338671094046
 30
0.0
 10
3459.41548577994
 20
8086.51422952852
 30
0.0
 10
3458.642376560459
 20
8103.228962055059
 30
0.0
 10
3458.023394086831
 20
8114.356247331123
 30
0.0
 10
3457.669501381162
 20
8119.416758220945
 30
0.0
 10
3457.563148863654
 20
8120.937552700154
 30
0.0
  0
LINE
  5
1E7
330
1F
100
AcDbEntity
  8
0
  6
Continuous
 62
     7
370
    25
100
AcDbLine
 10
3195.2946074486
 20
7766.2492289674
 30
0.0
 11
3470.5066653945
 21
7766.2492289674
 31
0.0
  0
SPLINE
  5
1E8
330
1F
100
AcDbEntity
  8
0
  6
Continuous
 62
     7
370
    25
100
AcDbSpline
210
0.0
220
0.0
230
1.0
 70
     8
 71
     3
 72
     9
 73
     5
 74
     0
 42
0.00000001
 43
0.00000001
 40
0.0
 40
0.0
 40
0.0
 40
0.0
 40
0.0012468186622652
 40
1.0
 40
1.0
 40
1.0
 40
1.0
 10
3213.526023375308
 20
8121.024296711798
 30
0.0
 10
3213.526017323535
 20
8121.024260690671
 30
0.0
 10
3213.521163551572
 20
8120.995370260412
 30
0.0
 10
3213.516310291464
 20
8120.966410777233
 30
0.0
 10
3213.511463082491
 20
8120.937487401282
 30
0.0
  0
SPLINE
  5
1E9
330
1F
100
AcDbEntity
  8
0
  6
Continuous
 62
     7
370
    25
100
AcDbSpline
210
0.0
220
0.0
230
1.0
 70
     8
 71
     3
 72
    21
 73
    17
 74
     0
 42
0.00000001
 43
0.00000001
 40
0.0
 40
0.0
 40
0.0
 40
0.0
 40
0.0000007106391671
 40
0.0287147545718358
 40
0.0954805277179264
 40
0.1625870188059029
 40
0.22944252852152
 40
0.3238763505097792
 40
0.4188144016748775
 40
0.5135440123123105
 40
0.6112396301821935
 40
0.7091306049796395
 40
0.8069131009717065
 40
0.9034546807325785
 40
0.9999992893608334
 40
1.0
 40
1.0
 40
1.0
 40
1.0
 10
3459.180089351867
 20
8124.284337139674
 30
0.0
 10
3459.180091938597
 20
8124.284300549384
 30
0.0
 10
3459.284613778097
 20
8122.805798859851
 30
0.0
 10
3459.635346023971
 20
8117.518018528765
 30
0.0
 10
3460.25231911917
 20
8106.317318110944
 30
0.0
 10
3461.038338879322
 20
8089.310781871978
 30
0.0
 10
3461.955299697053
 20
8066.85796012248
 30
0.0
 10
3463.009707273673
 20
8038.257229141321
 30
0.0
 10
3464.205063591727
 20
8003.722152834232
 30
0.0
 10
3465.450078949217
 20
7966.809866998376
 30
0.0
 10
3466.759822940753
 20
7928.150397515644
 30
0.0
 10
3468.143131982108
 20
7888.119305310807
 30
0.0
 10
3469.595276351855
 20
7847.627980533811
 30
0.0
 10
3471.128591230109
 20
7806.955684915911
 30
0.0
 10
3472.235419129257
 20
7779.82004508894
 30
0.0
 10
3472.819398647312
 20
7766.249328857101
 30
0.0
 10
3472.819402945798
 20
7766.249228967407
 30
0.0
  0
SPLINE
  5
1EA
330
1F
100
AcDbEntity
  8
0
  6
Continuous
 62
     7
370
    25
100
AcDbSpline
210
0.0
220
0.0
230
1.0
 70
    24
 71
     3
 72
    10
 73
     6
 74
     0
 42
0.00000001
 43
0.00000001
 40
0.0
 40
0.0
 40
0.0
 40
0.0
 40
0.3312130039958083
 40
0.6624157689881146
 40
1.0
 40
1.0
 40
1.0
 40
1.0
 10
3472.819402945798
 20
7766.249228967407
 30
0.0
 10
3472.771363385337
 20
7766.249228967407
 30
0.0
 10
3472.675285749492
 20
7766.249228967407
 30
0.0
 10
3471.848775410258
 20
7766.249228967407
 30
0.0
 10
3470.956939188429
 20
7766.249228967407
 30
0.0
 10
3470.50676619324
 20
7766.249228967407
 30
0.0
  0
SPLINE
  5
1EB
330
1F
100
AcDbEntity
  8
0
  6
Continuous
 62
     7
370
    25
100
AcDbSpline
210
0.0
220
0.0
230
1.0
 70
     8
 71
     3
 72
    11
 73
     7
 74
     0
 42
0.00000001
 43
0.00000001
 40
0.0
 40
0.0
 40
0.0
 40
0.0
 40
0.2500000000000053
 40
0.5000000000000157
 40
0.750000000000014
 40
1.0
 40
1.0
 40
1.0
 40
1.0
 10
3459.180089351867
 20
8124.284337139674
 30
0.0
 10
3459.153713124814
 20
8123.971327496628
 30
0.0
 10
3459.100960670707
 20
8123.345308210539
 30
0.0
 10
3458.765102604599
 20
8122.449330398896
 30
0.0
 10
3458.267336873812
 20
8121.619852529147
 30
0.0
 10
3457.797878200373
 20
8121.164985976485
 30
0.0
 10
3457.563148863654
 20
8120.937552700154
 30
0.0
  0
LINE
  5
1EC
330
1F
100
AcDbEntity
  8
0
  6
Continuous
 62
     7
370
    25
100
AcDbLine
 10
3191.4667394777
 20
7766.2492289674
 30
0.0
 11
3192.8532187728
 21
7766.2492289674
 31
0.0
  0
LINE
  5
1ED
330
1F
100
AcDbEntity
  8
0
  6
Continuous
 62
     7
370
    25
100
AcDbLine
 10
3387.1487764471
 20
7904.5328973272
 30
0.0
 11
3387.3846363758
 21
7907.175044937
 31
0.0
  0
ARC
  5
1EE
330
1F
100
AcDbEntity
  8
0
  6
Continuous
 62
     7
370
    25
100
AcDbCircle
 10
3379.6130172401
 20
8125.6947874475
 30
0.0
 40
6.615677150922073
100
AcDbArc
 50
320.5552187177
 51
354.9752696614
  0
LINE
  5
1EF
330
1F
100
AcDbEntity
  8
0
  6
Continuous
 62
     7
370
    25
100
AcDbLine
 10
3385.2640919275
 20
8126.1139179082
 30
0.0
 11
3385.2757183404
 21
8123.9996095115
 31
0.0
  0
ARC
  5
1F0
330
1F
100
AcDbEntity
  8
0
  6
Continuous
 62
     7
370
    25
100
AcDbCircle
 10
3372.9976212474
 20
8115.5288323243
 30
0.0
 40
14.91662610582287
100
AcDbArc
 50
34.6021668891
 51
62.5032891908
  0
LINE
  5
1F1
330
1F
100
AcDbEntity
  8
0
  6
Continuous
 62
     7
370
    25
100
AcDbLine
 10
3379.8767085262
 20
8130.1942748266
 30
0.0
 11
3379.8845930878
 21
8128.7604366583
 31
0.0
  0
LINE
  5
1F2
330
1F
100
AcDbEntity
  8
0
  6
Continuous
 62
     7
370
    25
100
AcDbLine
 10
3365.3580014088
 20
8134.8238319289
 30
0.0
 11
3365.3630181297
 21
8133.9115217332
 31
0.0
  0
ARC
  5
1F3
330
1F
100
AcDbEntity
  8
0
  6
Continuous
 62
     7
370
    25
100
AcDbCircle
 10
3343.1525760167
 20
8030.4234971721
 30
0.0
 40
105.8445792963116
100
AcDbArc
 50
77.8870153628
 51
85.3934839472
  0
LINE
  5
1F4
330
1F
100
AcDbEntity
  8
0
  6
Continuous
 62
     7
370
    25
100
AcDbLine
 10
3351.6488283822
 20
8136.7204286437
 30
0.0
 11
3351.6531959352
 21
8135.9261721496
 31
0.0
  0
LINE
  5
1F5
330
1F
100
AcDbEntity
  8
0
  6
Continuous
 62
     7
370
    25
100
AcDbLine
 10
3330.584279865
 20
8136.7892422389
 30
0.0
 11
3330.5885953477
 21
8136.0044549224
 31
0.0
  0
ARC
  5
1F6
330
1F
100
AcDbEntity
  8
0
  6
Continuous
 62
     7
370
    25
100
AcDbCircle
 10
3338.7388800192
 20
8024.1261351243
 30
0.0
 40
112.174799224623
100
AcDbArc
 50
94.1666110466
 51
101.3872884025
  0
LINE
  5
1F7
330
1F
100
AcDbEntity
  8
0
  6
Continuous
 62
     7
370
    25
100
AcDbLine
 10
3316.5862422953
 20
8134.9769145969
 30
0.0
 11
3316.5911041154
 21
8134.092773718
 31
0.0
  0
LINE
  5
1F8
330
1F
100
AcDbEntity
  8
0
  6
Continuous
 62
     7
370
    25
100
AcDbLine
 10
3301.3155167488
 20
8130.3832926738
 30
0.0
 11
3301.3228352367
 21
8129.0523972021
 31
0.0
  0
ARC
  5
1F9
330
1F
100
AcDbEntity
  8
0
  6
Continuous
 62
     7
370
    25
100
AcDbCircle
 10
3309.20405928
 20
8112.6032206502
 30
0.0
 40
18.23976703949382
100
AcDbArc
 50
115.6002808991
 51
139.9725023052
  0
LINE
  5
1FA
330
1F
100
AcDbEntity
  8
0
  6
Continuous
 62
     7
370
    25
100
AcDbLine
 10
3295.2244377377
 20
8126.6579054216
 30
0.0
 11
3295.237215491
 21
8124.3342212994
 31
0.0
  0
ARC
  5
1FB
330
1F
100
AcDbEntity
  8
0
  6
Continuous
 62
     7
370
    25
100
AcDbCircle
 10
3299.9057990341
 20
8125.160793827
 30
0.0
 40
6.196199479586788
100
AcDbArc
 50
185.1289406268
 51
212.5586267324
  0
LINE
  5
1FC
330
1F
100
AcDbEntity
  8
0
  6
Continuous
 62
     7
370
    25
100
AcDbLine
 10
3294.6833866832
 20
8121.8262328022
 30
0.0
 11
3294.7092231563
 21
8117.1277696983
 31
0.0
  0
ARC
  5
1FD
330
1F
100
AcDbEntity
  8
0
  6
Continuous
 62
     7
370
    25
100
AcDbCircle
 10
3306.9873202494
 20
8125.5985468855
 30
0.0
 40
14.9166261058641
100
AcDbArc
 50
214.6021668891
 51
242.5032891908
  0
ARC
  5
1FE
330
1F
100
AcDbEntity
  8
0
  6
Continuous
 62
     7
370
    25
100
AcDbCircle
 10
3325.7284575628
 20
8167.236682228
 30
0.0
 40
56.4313155523149
100
AcDbArc
 50
245.6364312146
 51
258.6224677836
  0
LINE
  5
1FF
330
1F
100
AcDbEntity
  8
0
  6
Continuous
 62
     7
370
    25
100
AcDbLine
 10
3314.5960868939
 20
8111.9143205805
 30
0.0
 11
3314.6219233671
 21
8107.2158574766
 31
0.0
  0
ARC
  5
200
330
1F
100
AcDbEntity
  8
0
  6
Continuous
 62
     7
370
    25
100
AcDbCircle
 10
3336.8323654801
 20
8210.7038820375
 30
0.0
 40
105.8445792961265
100
AcDbArc
 50
257.8870153628
 51
265.3934839472
  0
ARC
  5
201
330
1F
100
AcDbEntity
  8
0
  6
Continuous
 62
     7
370
    25
100
AcDbCircle
 10
3339.3273664734
 20
8243.012196615
 30
0.0
 40
133.569224207784
100
AcDbArc
 50
265.7115726339
 51
273.9223160142
  0
ARC
  5
202
330
1F
100
AcDbEntity
  8
0
  6
Continuous
 62
     7
370
    25
100
AcDbCircle
 10
3341.2460614776
 20
8217.0012440846
 30
0.0
 40
112.1747992237349
100
AcDbArc
 50
274.1666110465
 51
281.3872884026
  0
LINE
  5
203
330
1F
100
AcDbEntity
  8
0
  6
Continuous
 62
     7
370
    25
100
AcDbLine
 10
3363.3680009082
 20
8111.7330685958
 30
0.0
 11
3363.3938373814
 21
8107.0346054918
 31
0.0
  0
ARC
  5
204
330
1F
100
AcDbEntity
  8
0
  6
Continuous
 62
     7
370
    25
100
AcDbCircle
 10
3350.8022572192
 20
8176.4852315956
 30
0.0
 40
65.96014347779749
100
AcDbArc
 50
280.9822626816
 51
292.7660766102
  0
ARC
  5
205
330
1F
100
AcDbEntity
  8
0
  6
Continuous
 62
     7
370
    25
100
AcDbCircle
 10
3370.7808822169
 20
8128.5241585595
 30
0.0
 40
18.23976703934834
100
AcDbArc
 50
295.6002808989
 51
319.9725023053
  0
LINE
  5
206
330
1F
100
AcDbEntity
  8
0
  6
Continuous
 62
     7
370
    25
100
AcDbLine
 10
3384.7218895326
 20
8121.4916210144
 30
0.0
 11
3384.7477260057
 21
8116.7931579104
 31
0.0
  0
LWPOLYLINE
  5
207
330
1F
100
AcDbEntity
  8
0
  6
Continuous
 62
     7
370
    25
100
AcDbPolyline
 90
        6
 70
   128
 43
0.0
 10
3311.1360566069
 20
8115.0330692673
 10
3307.9388804775
 20
8116.2165959627
 10
3303.2340992248
 20
8118.6653131179
 10
3300.1347060161
 20
8121.4023438183
 10
3298.7761592072
 20
8124.3080666887
 10
3298.7246783902
 20
8125.3307695649
  0
LWPOLYLINE
  5
208
330
1F
100
AcDbEntity
  8
0
  6
Continuous
 62
     7
370
    25
100
AcDbPolyline
 90
        7
 70
   128
 43
0.0
 10
3381.2053414626
 20
8125.7843241406
 10
3380.7154347379
 20
8123.2688177212
 10
3378.4928420179
 20
8120.4085150176
 10
3374.5864691503
 20
8117.7603395714
 10
3369.1670433743
 20
8115.440029357
 10
3362.4714196015
 20
8113.5489930649
 10
3354.79222872
 20
8112.1698780551
  0
LINE
  5
209
330
1F
100
AcDbEntity
  8
0
  6
Continuous
 62
     7
370
    25
100
AcDbLine
 10
3382.4044803246
 20
8121.8321629528
 30
0.0
 11
3384.7218895326
 21
8121.4916210144
 31
0.0
  0
ARC
  5
20A
330
1F
100
AcDbEntity
  8
0
  6
Continuous
 62
     7
370
    25
100
AcDbCircle
 10
3369.0602413667
 20
8132.7601125221
 30
0.0
 40
17.2478634953915
100
AcDbArc
 50
294.8877353384
 51
320.6850478659
  0
LINE
  5
20B
330
1F
100
AcDbEntity
  8
0
  6
Continuous
 62
     7
370
    25
100
AcDbLine
 10
3363.3680009082
 20
8111.7330685958
 30
0.0
 11
3362.4567240788
 21
8112.5378043911
 31
0.0
  0
ARC
  5
20C
330
1F
100
AcDbEntity
  8
0
  6
Continuous
 62
     7
370
    25
100
AcDbCircle
 10
3341.1434927245
 20
8216.3938373098
 30
0.0
 40
106.0204197519304
100
AcDbArc
 50
273.9567319495
 51
281.5971674995
  0
ARC
  5
20D
330
1F
100
AcDbEntity
  8
0
  6
Continuous
 62
     7
370
    25
100
AcDbCircle
 10
3336.9887984338
 20
8210.4400683364
 30
0.0
 40
100.0361313154949
100
AcDbArc
 50
257.6687493924
 51
265.6117499176
  0
LINE
  5
20E
330
1F
100
AcDbEntity
  8
0
  6
Continuous
 62
     7
370
    25
100
AcDbLine
 10
3315.6247560506
 20
8112.711846918
 30
0.0
 11
3314.5960868939
 21
8111.9143205805
 31
0.0
  0
ARC
  5
20F
330
1F
100
AcDbEntity
  8
0
  6
Continuous
 62
     7
370
    25
100
AcDbCircle
 10
3308.7774947929
 20
8129.9973040265
 30
0.0
 40
14.11161865616592
100
AcDbArc
 50
213.788776977
 51
243.3166791029
  0
LINE
  5
210
330
1F
100
AcDbEntity
  8
0
  6
Continuous
 62
     7
370
    25
100
AcDbLine
 10
3294.6833866832
 20
8121.8262328022
 30
0.0
 11
3297.0494213851
 21
8122.1493695697
 31
0.0
  0
LWPOLYLINE
  5
211
330
1F
100
AcDbEntity
  8
0
  6
Continuous
 62
     7
370
    25
100
AcDbPolyline
 90
        3
 70
   128
 43
0.0
 10
3302.6754979537
 20
8123.7310312993
 10
3300.108869543
 20
8126.1008069223
 10
3299.9087930139
 20
8126.3642306727
  0
LWPOLYLINE
  5
212
330
1F
100
AcDbEntity
  8
0
  6
Continuous
 62
     7
370
    25
100
AcDbPolyline
 90
        3
 70
   128
 43
0.0
 10
3380.0099329511
 20
8126.8047004408
 10
3378.4670055447
 20
8125.1069781215
 10
3377.2723539565
 20
8124.1412334499
  0
LINE
  5
213
330
1F
100
AcDbEntity
  8
0
  6
Continuous
 62
     7
370
    25
100
AcDbLine
 10
3377.2723996663
 20
8131.354097799
 30
0.0
 11
3377.4402308501
 21
8130.1668221987
 31
0.0
  0
ARC
  5
214
330
1F
100
AcDbEntity
  8
0
  6
Continuous
 62
     7
370
    25
100
AcDbCircle
 10
3342.9703065897
 20
8035.385773977
 30
0.0
 40
100.0361313158116
100
AcDbArc
 50
77.6687493924
 51
85.6117499176
  0
LINE
  5
215
330
1F
100
AcDbEntity
  8
0
  6
Continuous
 62
     7
370
    25
100
AcDbLine
 10
3350.6245267785
 20
8135.1286458122
 30
0.0
 11
3351.6531959352
 21
8135.9261721496
 31
0.0
  0
LINE
  5
216
330
1F
100
AcDbEntity
  8
0
  6
Continuous
 62
     7
370
    25
100
AcDbLine
 10
3364.334348973
 20
8133.1139953957
 30
0.0
 11
3365.3630181297
 21
8133.9115217332
 31
0.0
  0
LWPOLYLINE
  5
217
330
1F
100
AcDbEntity
  8
0
  6
Continuous
 62
     7
370
    25
100
AcDbPolyline
 90
       14
 70
   128
 43
0.0
 10
3353.4444474069
 20
8113.3600848418
 10
3345.6067264954
 20
8112.6109611993
 10
3337.5052811403
 20
8112.453393211
 10
3329.5189259221
 20
8112.8947485808
 10
3322.0210939348
 20
8113.9143900223
 10
3315.3623754687
 20
8115.4646402349
 10
3309.8541247988
 20
8117.4730112417
 10
3305.7539016043
 20
8119.8455938464
 10
3303.2534277648
 20
8122.4714487234
 10
3302.4696226579
 20
8125.2277938172
 10
3303.4391361393
 20
8127.9857454945
 10
3306.1166348361
 20
8130.6163450003
 10
3310.3769218852
 20
8132.9965884252
 10
3314.482318379
 20
8134.546321238
  0
LWPOLYLINE
  5
218
330
1F
100
AcDbEntity
  8
0
  6
Continuous
 62
     7
370
    25
100
AcDbPolyline
 90
       11
 70
   128
 43
0.0
 10
3365.3473063079
 20
8134.8260237423
 10
3367.4863401114
 20
8134.1073304905
 10
3372.3189057504
 20
8131.9039372995
 10
3375.6387151323
 20
8129.3899816428
 10
3377.2905376599
 20
8126.683013293
 10
3377.1971359478
 20
8123.9096070814
 10
3375.3628773562
 20
8121.1994444
 10
3371.8735297783
 20
8118.6792494439
 10
3366.8922512285
 20
8116.466863728
 10
3360.6519607558
 20
8114.6657359496
 10
3353.4444474069
 20
8113.3600848418
  0
LINE
  5
219
330
1F
100
AcDbEntity
  8
0
  6
Continuous
 62
     7
370
    25
100
AcDbLine
 10
3316.5911041154
 20
8134.092773718
 30
0.0
 11
3317.5023809448
 21
8133.2880379226
 31
0.0
  0
LINE
  5
21A
330
1F
100
AcDbEntity
  8
0
  6
Continuous
 62
     7
370
    25
100
AcDbLine
 10
3330.5885953477
 20
8136.0044549224
 30
0.0
 11
3331.4998721772
 21
8135.1997191271
 31
0.0
  0
ARC
  5
21B
330
1F
100
AcDbEntity
  8
0
  6
Continuous
 62
     7
370
    25
100
AcDbCircle
 10
3338.815612299
 20
8029.4320050044
 30
0.0
 40
106.020419751446
100
AcDbArc
 50
93.9567319495
 51
101.5971674995
  0
LINE
  5
21C
330
1F
100
AcDbEntity
  8
0
  6
Continuous
 62
     7
370
    25
100
AcDbLine
 10
3331.4907870228
 20
8136.8518897747
 30
0.0
 11
3331.4998721772
 21
8135.1997191271
 31
0.0
  0
LINE
  5
21D
330
1F
100
AcDbEntity
  8
0
  6
Continuous
 62
     7
370
    25
100
AcDbLine
 10
3350.6153425903
 20
8136.7988261566
 30
0.0
 11
3350.6245267785
 21
8135.1286458122
 31
0.0
  0
LINE
  5
21E
330
1F
100
AcDbEntity
  8
0
  6
Continuous
 62
     7
370
    25
100
AcDbLine
 10
3303.6256775438
 20
8131.3609028163
 30
0.0
 11
3303.6402444446
 21
8128.7118552636
 31
0.0
  0
LINE
  5
21F
330
1F
100
AcDbEntity
  8
0
  6
Continuous
 62
     7
370
    25
100
AcDbLine
 10
3303.6402444446
 20
8128.7118552636
 30
0.0
 11
3301.3228352367
 21
8129.0523972021
 31
0.0
  0
ARC
  5
220
330
1F
100
AcDbEntity
  8
0
  6
Continuous
 62
     7
370
    25
100
AcDbCircle
 10
3310.8988636569
 20
8113.0657297916
 30
0.0
 40
17.24786349540942
100
AcDbArc
 50
114.8877353384
 51
140.6850478659
  0
LINE
  5
221
330
1F
100
AcDbEntity
  8
0
  6
Continuous
 62
     7
370
    25
100
AcDbLine
 10
3297.5546246989
 20
8123.9936793609
 30
0.0
 11
3295.237215491
 21
8124.3342212994
 31
0.0
  0
LINE
  5
222
330
1F
100
AcDbEntity
  8
0
  6
Continuous
 62
     7
370
    25
100
AcDbLine
 10
3379.8845930878
 20
8128.7604366583
 30
0.0
 11
3377.5185583858
 21
8128.4372998908
 31
0.0
  0
LINE
  5
223
330
1F
100
AcDbEntity
  8
0
  6
Continuous
 62
     7
370
    25
100
AcDbLine
 10
3385.2757183404
 20
8123.9996095115
 30
0.0
 11
3382.9096836385
 21
8123.6764727441
 31
0.0
  0
ARC
  5
224
330
1F
100
AcDbEntity
  8
0
  6
Continuous
 62
     7
370
    25
100
AcDbCircle
 10
3371.1816102307
 20
8115.8285382873
 30
0.0
 40
14.11161865606433
100
AcDbArc
 50
33.7887769769
 51
63.316679103
  0
LINE
  5
225
330
1F
100
AcDbEntity
  8
0
  6
Continuous
 62
     7
370
    25
100
AcDbLine
 10
3377.5030381856
 20
8131.2597086361
 30
0.0
 11
3377.5185583858
 21
8128.4372998908
 31
0.0
  0
LINE
  5
226
330
1F
100
AcDbEntity
  8
0
  6
Continuous
 62
     7
370
    25
100
AcDbLine
 10
3294.7092231563
 20
8117.1277696983
 30
0.0
 11
3297.0752578583
 21
8117.4509064657
 31
0.0
  0
ARC
  5
227
330
1F
100
AcDbEntity
  8
0
  6
Continuous
 62
     7
370
    25
100
AcDbCircle
 10
3308.8033312661
 20
8125.2988409225
 30
0.0
 40
14.11161865609449
100
AcDbArc
 50
213.7887769769
 51
243.316679103
  0
LINE
  5
228
330
1F
100
AcDbEntity
  8
0
  6
Continuous
 62
     7
370
    25
100
AcDbLine
 10
3300.100348409
 20
8112.3669425515
 30
0.0
 11
3302.466383111
 21
8112.6900793189
 31
0.0
  0
LINE
  5
229
330
1F
100
AcDbEntity
  8
0
  6
Continuous
 62
     7
370
    25
100
AcDbLine
 10
3297.0494213851
 20
8122.1493695697
 30
0.0
 11
3297.0752578583
 21
8117.4509064657
 31
0.0
  0
LINE
  5
22A
330
1F
100
AcDbEntity
  8
0
  6
Continuous
 62
     7
370
    25
100
AcDbLine
 10
3302.4405466378
 20
8117.3885424229
 30
0.0
 11
3302.466383111
 21
8112.6900793189
 31
0.0
  0
LINE
  5
22B
330
1F
100
AcDbEntity
  8
0
  6
Continuous
 62
     7
370
    25
100
AcDbLine
 10
3376.3446970522
 20
8112.4155239461
 30
0.0
 11
3378.6621062601
 21
8112.0749820077
 31
0.0
  0
ARC
  5
22C
330
1F
100
AcDbEntity
  8
0
  6
Continuous
 62
     7
370
    25
100
AcDbCircle
 10
3369.0860778399
 20
8128.0616494182
 30
0.0
 40
17.24786349536131
100
AcDbArc
 50
294.8877353384
 51
320.6850478659
  0
LINE
  5
22D
330
1F
100
AcDbEntity
  8
0
  6
Continuous
 62
     7
370
    25
100
AcDbLine
 10
3382.4303167978
 20
8117.1336998489
 30
0.0
 11
3384.7477260057
 21
8116.7931579104
 31
0.0
  0
LINE
  5
22E
330
1F
100
AcDbEntity
  8
0
  6
Continuous
 62
     7
370
    25
100
AcDbLine
 10
3382.4044803246
 20
8121.8321629528
 30
0.0
 11
3382.4303167978
 21
8117.1336998489
 31
0.0
  0
LINE
  5
22F
330
1F
100
AcDbEntity
  8
0
  6
Continuous
 62
     7
370
    25
100
AcDbLine
 10
3376.318860579
 20
8117.1139870501
 30
0.0
 11
3376.3446970522
 21
8112.4155239461
 31
0.0
  0
LINE
  5
230
330
1F
100
AcDbEntity
  8
0
  6
Continuous
 62
     7
370
    25
100
AcDbLine
 10
3329.3345782451
 20
8110.6971965015
 30
0.0
 11
3329.3604147182
 21
8105.9987333976
 31
0.0
  0
ARC
  5
231
330
1F
100
AcDbEntity
  8
0
  6
Continuous
 62
     7
370
    25
100
AcDbCircle
 10
3337.014634907
 20
8205.7416052328
 30
0.0
 40
100.036131315805
100
AcDbArc
 50
257.6687493924
 51
265.6117499176
  0
LINE
  5
232
330
1F
100
AcDbEntity
  8
0
  6
Continuous
 62
     7
370
    25
100
AcDbLine
 10
3315.6247560506
 20
8112.711846918
 30
0.0
 11
3315.6505925237
 21
8108.013383814
 31
0.0
  0
LINE
  5
233
330
1F
100
AcDbEntity
  8
0
  6
Continuous
 62
     7
370
    25
100
AcDbLine
 10
3329.3604147182
 20
8105.9987333976
 30
0.0
 11
3328.3317455616
 21
8105.2012070602
 31
0.0
  0
LINE
  5
234
330
1F
100
AcDbEntity
  8
0
  6
Continuous
 62
     7
370
    25
100
AcDbLine
 10
3315.6505925237
 20
8108.013383814
 30
0.0
 11
3314.6219233671
 21
8107.2158574766
 31
0.0
  0
ARC
  5
235
330
1F
100
AcDbEntity
  8
0
  6
Continuous
 62
     7
370
    25
100
AcDbCircle
 10
3341.1693291978
 20
8211.695374205
 30
0.0
 40
106.020419751046
100
AcDbArc
 50
273.9567319495
 51
281.5971674996
  0
LINE
  5
236
330
1F
100
AcDbEntity
  8
0
  6
Continuous
 62
     7
370
    25
100
AcDbLine
 10
3348.4592328464
 20
8110.6261231866
 30
0.0
 11
3348.4850693196
 21
8105.9276600827
 31
0.0
  0
LINE
  5
237
330
1F
100
AcDbEntity
  8
0
  6
Continuous
 62
     7
370
    25
100
AcDbLine
 10
3362.4567240788
 20
8112.5378043911
 30
0.0
 11
3362.482560552
 21
8107.8393412871
 31
0.0
  0
LINE
  5
238
330
1F
100
AcDbEntity
  8
0
  6
Continuous
 62
     7
370
    25
100
AcDbLine
 10
3363.3938373814
 20
8107.0346054918
 30
0.0
 11
3362.482560552
 21
8107.8393412871
 31
0.0
  0
LINE
  5
239
330
1F
100
AcDbEntity
  8
0
  6
Continuous
 62
     7
370
    25
100
AcDbLine
 10
3349.3963461491
 20
8105.1229242874
 30
0.0
 11
3348.4850693196
 21
8105.9276600827
 31
0.0
  0
LINE
  5
23A
330
1F
100
AcDbEntity
  8
0
  6
Continuous
 62
     8
370
    25
100
AcDbLine
 10
4048.711443858
 20
7091.0961252424
 30
0.0
 11
3531.211443858
 21
7091.0961252424
 31
0.0
  0
LINE
  5
23B
330
1F
100
AcDbEntity
  8
0
  6
Continuous
 62
     8
370
    25
100
AcDbLine
 10
4053.711443858
 20
7008.5961252424
 30
0.0
 11
3526.211443858
 21
7008.5961252424
 31
0.0
  0
LINE
  5
23C
330
1F
100
AcDbEntity
  8
0
  6
Continuous
 62
     8
370
    25
100
AcDbLine
 10
4053.711443858
 20
6411.0961252424
 30
0.0
 11
3526.211443858
 21
6411.0961252424
 31
0.0
  0
LINE
  5
23D
330
1F
100
AcDbEntity
  8
0
  6
Continuous
 62
     8
370
    25
100
AcDbLine
 10
3527.461443858
 20
7102.4131252424
 30
0.0
 11
3536.3663683885
 21
7102.4131252424
 31
0.0
  0
LINE
  5
23E
330
1F
100
AcDbEntity
  8
0
  6
Continuous
 62
     8
370
    25
100
AcDbLine
 10
4043.5565193275
 20
7102.4131252424
 30
0.0
 11
4052.461443858
 21
7102.4131252424
 31
0.0
  0
LINE
  5
23F
330
1F
100
AcDbEntity
  8
0
  6
Continuous
 62
     8
370
    25
100
AcDbLine
 10
3154.6366595913
 20
6660.5690658978
 30
0.0
 11
3120.9324295511
 21
6660.5690658978
 31
0.0
  0
LINE
  5
240
330
1F
100
AcDbEntity
  8
0
  6
Continuous
 62
     8
370
    25
100
AcDbLine
 10
3121.1366595913
 20
6657.100329473
 30
0.0
 11
3154.6366595913
 21
6657.100329473
 31
0.0
  0
LINE
  5
241
330
1F
100
AcDbEntity
  8
0
  6
Continuous
 62
     8
370
    25
100
AcDbLine
 10
3153.2304095913
 20
6654.8522834464
 30
0.0
 11
3121.0394790447
 21
6654.8522834464
 31
0.0
  0
LINE
  5
242
330
1F
100
AcDbEntity
  8
0
  6
Continuous
 62
     8
370
    25
100
AcDbLine
 10
3014.6366595913
 20
6657.100329473
 30
0.0
 11
3054.6366595913
 21
6657.100329473
 31
0.0
  0
LINE
  5
243
330
1F
100
AcDbEntity
  8
0
  6
Continuous
 62
     8
370
    25
100
AcDbLine
 10
3053.2304095913
 20
6654.8522834464
 30
0.0
 11
3016.0429095913
 21
6654.8522834464
 31
0.0
  0
LINE
  5
244
330
1F
100
AcDbEntity
  8
0
  6
Continuous
 62
     8
370
    25
100
AcDbLine
 10
3054.6366595913
 20
6660.5690658978
 30
0.0
 11
3014.6366595913
 21
6660.5690658978
 31
0.0
  0
LINE
  5
245
330
1F
100
AcDbEntity
  8
0
  6
Continuous
 62
     8
370
    25
100
AcDbLine
 10
3210.295269145
 20
8166.0626446291
 30
0.0
 11
3211.4712921769
 21
8183.7467637686
 31
0.0
  0
LINE
  5
246
330
1F
100
AcDbEntity
  8
0
  6
Continuous
 62
     8
370
    25
100
AcDbLine
 10
3459.573921454
 20
8173.4977271347
 30
0.0
 11
3460.1700554753
 21
8166.0626446319
 31
0.0
  0
SPLINE
  5
247
330
1F
100
AcDbEntity
  8
0
  6
Continuous
 62
     8
370
    25
100
AcDbSpline
210
0.0
220
0.0
230
1.0
 70
     8
 71
     3
 72
    11
 73
     7
 74
     0
 42
0.00000001
 43
0.00000001
 40
0.0
 40
0.0
 40
0.0
 40
0.0
 40
0.0455926427943064
 40
0.3401068751903182
 40
0.6702365349017136
 40
1.0
 40
1.0
 40
1.0
 40
1.0
 10
3456.074964296918
 20
8140.598621115129
 30
0.0
 10
3456.12200418932
 20
8140.789651888546
 30
0.0
 10
3456.472907094557
 20
8142.214681793149
 30
0.0
 10
3457.156113110058
 20
8140.740276952966
 30
0.0
 10
3458.132547587513
 20
8136.218821380453
 30
0.0
 10
3458.827960162666
 20
8128.295930460059
 30
0.0
 10
3459.175473497528
 20
8124.336683325519
 30
0.0
  0
SPLINE
  5
248
330
1F
100
AcDbEntity
  8
0
  6
Continuous
 62
     8
370
    25
100
AcDbSpline
210
0.0
220
0.0
230
1.0
 70
     8
 71
     3
 72
    11
 73
     7
 74
     0
 42
0.00000001
 43
0.00000001
 40
0.0
 40
0.0
 40
0.0
 40
0.0
 40
0.2955599560352585
 40
0.5914481244870143
 40
0.8554149455262504
 40
1.0
 40
1.0
 40
1.0
 40
1.0
 10
3211.865391831642
 20
8124.336683325519
 30
0.0
 10
3212.538287934748
 20
8128.28404425804
 30
0.0
 10
3213.884827376342
 20
8136.183149575047
 30
0.0
 10
3215.855742607442
 20
8140.876726052696
 30
0.0
 10
3217.484535572736
 20
8142.103853688392
 30
0.0
 10
3218.429256418251
 20
8139.990882697723
 30
0.0
 10
3218.763589762675
 20
8139.243109785401
 30
0.0
  0
LWPOLYLINE
  5
249
330
1F
100
AcDbEntity
  8
0
  6
Continuous
 62
     8
370
    25
100
AcDbPolyline
 90
        7
 70
   128
 43
0.0
 10
3219.6638100505
 20
8137.3049141503
 10
3219.6107707661
 20
8137.4026076245
 10
3217.7222295714
 20
8136.7843558676
 10
3215.6439456018
 20
8131.5552182443
 10
3213.5203496718
 20
8121.0290627875
 10
3213.5203311718
 20
8121.0289457193
 10
3213.5203311718
 20
8121.0289457193
  0
SPLINE
  5
24A
330
1F
100
AcDbEntity
  8
0
  6
Continuous
 62
     8
370
    25
100
AcDbSpline
210
0.0
220
0.0
230
1.0
 70
     8
 71
     3
 72
    10
 73
     6
 74
     0
 42
0.00000001
 43
0.00000001
 40
0.0
 40
0.0
 40
0.0
 40
0.0
 40
0.0000044390705476
 40
0.4935424235814611
 40
1.0
 40
1.0
 40
1.0
 40
1.0
 10
3457.560914337119
 20
8121.028945719344
 30
0.0
 10
3457.560910948793
 20
8121.028984742086
 30
0.0
 10
3457.184191896272
 20
8125.367591006512
 30
0.0
 10
3456.429666519073
 20
8132.499394599621
 30
0.0
 10
3455.70371753564
 20
8135.343785932122
 30
0.0
 10
3455.336053540801
 20
8136.784355867557
 30
0.0
  0
ARC
  5
24B
330
1F
100
AcDbEntity
  8
0
  6
Continuous
 62
     7
370
    25
100
AcDbCircle
 10
5587.5086047811
 20
7091.0961252424
 30
0.0
 40
15.00000000000091
100
AcDbArc
 50
0.0
 51
90.0
  0
ARC
  5
24C
330
1F
100
AcDbEntity
  8
0
  6
Continuous
 62
     7
370
    25
100
AcDbCircle
 10
5100.0086047811
 20
7091.0961252424
 30
0.0
 40
15.00000000000091
100
AcDbArc
 50
90.0
 51
180.0
  0
LINE
  5
24D
330
1F
100
AcDbEntity
  8
0
  6
Continuous
 62
     7
370
    25
100
AcDbLine
 10
5602.5086047811
 20
7021.0961252424
 30
0.0
 11
5602.5086047811
 21
7091.0961252424
 31
0.0
  0
LINE
  5
24E
330
1F
100
AcDbEntity
  8
0
  6
Continuous
 62
     7
370
    25
100
AcDbLine
 10
5085.0086047811
 20
7091.0961252424
 30
0.0
 11
5085.0086047811
 21
7021.0961252424
 31
0.0
  0
LINE
  5
24F
330
1F
100
AcDbEntity
  8
0
  6
Continuous
 62
     7
370
    25
100
AcDbLine
 10
5607.5086047811
 20
6411.0961252424
 30
0.0
 11
5607.5086047811
 21
7008.5961252424
 31
0.0
  0
LINE
  5
250
330
1F
100
AcDbEntity
  8
0
  6
Continuous
 62
     7
370
    25
100
AcDbLine
 10
5080.0086047811
 20
7008.5961252424
 30
0.0
 11
5080.0086047811
 21
6411.0961252424
 31
0.0
  0
ARC
  5
251
330
1F
100
AcDbEntity
  8
0
  6
Continuous
 62
     7
370
    25
100
AcDbCircle
 10
5595.0086047811
 20
7008.5961252424
 30
0.0
 40
12.50000000000091
100
AcDbArc
 50
0.0
 51
90.0
  0
ARC
  5
252
330
1F
100
AcDbEntity
  8
0
  6
Continuous
 62
     7
370
    25
100
AcDbCircle
 10
5092.5086047811
 20
7008.5961252424
 30
0.0
 40
12.50000000000091
100
AcDbArc
 50
90.0
 51
180.0
  0
ARC
  5
253
330
1F
100
AcDbEntity
  8
0
  6
Continuous
 62
     7
370
    25
100
AcDbCircle
 10
5595.0086047811
 20
6411.0961252424
 30
0.0
 40
12.5
100
AcDbArc
 50
270.0
 51
0.0
  0
ARC
  5
254
330
1F
100
AcDbEntity
  8
0
  6
Continuous
 62
     7
370
    25
100
AcDbCircle
 10
5092.5086047811
 20
6411.0961252424
 30
0.0
 40
12.5
100
AcDbArc
 50
180.0
 51
270.0
  0
LINE
  5
255
330
1F
100
AcDbEntity
  8
0
  6
Continuous
 62
     7
370
    25
100
AcDbLine
 10
5606.2586047811
 20
7106.0961252424
 30
0.0
 11
5606.2586047811
 21
7113.5961252424
 31
0.0
  0
LINE
  5
256
330
1F
100
AcDbEntity
  8
0
  6
Continuous
 62
     7
370
    25
100
AcDbLine
 10
5430.564442939
 20
6894.66911508
 30
0.0
 11
5427.064442939
 21
6894.66911508
 31
0.0
  0
LINE
  5
257
330
1F
100
AcDbEntity
  8
0
  6
Continuous
 62
     7
370
    25
100
AcDbLine
 10
5427.064442939
 20
6851.4690167156
 30
0.0
 11
5430.564442939
 21
6851.4690167156
 31
0.0
  0
LINE
  5
258
330
1F
100
AcDbEntity
  8
0
  6
Continuous
 62
     7
370
    25
100
AcDbLine
 10
5540.564442939
 20
6893.0690658978
 30
0.0
 11
5535.564442939
 21
6893.0690658978
 31
0.0
  0
LINE
  5
259
330
1F
100
AcDbEntity
  8
0
  6
Continuous
 62
     7
370
    25
100
AcDbLine
 10
5535.564442939
 20
6853.0690658978
 30
0.0
 11
5540.564442939
 21
6853.0690658978
 31
0.0
  0
ARC
  5
25A
330
1F
100
AcDbEntity
  8
0
  6
Continuous
 62
     7
370
    25
100
AcDbCircle
 10
5535.564442939
 20
6890.5690658978
 30
0.0
 40
2.5
100
AcDbArc
 50
90.0
 51
180.0
  0
ARC
  5
25B
330
1F
100
AcDbEntity
  8
0
  6
Continuous
 62
     7
370
    25
100
AcDbCircle
 10
5535.564442939
 20
6855.5690658978
 30
0.0
 40
2.5
100
AcDbArc
 50
180.0
 51
270.0
  0
ARC
  5
25C
330
1F
100
AcDbEntity
  8
0
  6
Continuous
 62
     7
370
    25
100
AcDbCircle
 10
5540.564442939
 20
6890.5690658978
 30
0.0
 40
2.500000000000395
100
AcDbArc
 50
31.8907918018
 51
90.0
  0
ARC
  5
25D
330
1F
100
AcDbEntity
  8
0
  6
Continuous
 62
     7
370
    25
100
AcDbCircle
 10
5540.564442939
 20
6855.5690658978
 30
0.0
 40
2.500000000000909
100
AcDbArc
 50
270.0
 51
328.1092081981
  0
ARC
  5
25E
330
1F
100
AcDbEntity
  8
0
  6
Continuous
 62
     7
370
    25
100
AcDbCircle
 10
5512.439442939
 20
6873.0690658978
 30
0.0
 40
35.62500000000021
100
AcDbArc
 50
7.4380473866
 51
31.8907918018
  0
ARC
  5
25F
330
1F
100
AcDbEntity
  8
0
  6
Continuous
 62
     7
370
    25
100
AcDbCircle
 10
5512.439442939
 20
6873.0690658978
 30
0.0
 40
35.62500000000117
100
AcDbArc
 50
328.1092081982
 51
352.5619526134
  0
LINE
  5
260
330
1F
100
AcDbEntity
  8
0
  6
Continuous
 62
     7
370
    25
100
AcDbLine
 10
5455.314442939
 20
7048.0690658978
 30
0.0
 11
5455.314442939
 21
7013.0690658978
 31
0.0
  0
LINE
  5
261
330
1F
100
AcDbEntity
  8
0
  6
Continuous
 62
     7
370
    25
100
AcDbLine
 10
5495.814442939
 20
7013.0690658978
 30
0.0
 11
5495.814442939
 21
7048.0690658978
 31
0.0
  0
LINE
  5
262
330
1F
100
AcDbEntity
  8
0
  6
Continuous
 62
     7
370
    25
100
AcDbLine
 10
5430.564442939
 20
6897.5690658978
 30
0.0
 11
5427.064442939
 21
6897.5690658978
 31
0.0
  0
LINE
  5
263
330
1F
100
AcDbEntity
  8
0
  6
Continuous
 62
     7
370
    25
100
AcDbLine
 10
5427.064442939
 20
6848.5690658978
 30
0.0
 11
5430.564442939
 21
6848.5690658978
 31
0.0
  0
LINE
  5
264
330
1F
100
AcDbEntity
  8
0
  6
Continuous
 62
     7
370
    25
100
AcDbLine
 10
5417.7144990703
 20
6746.8190658978
 30
0.0
 11
5427.064442939
 21
6746.8190658978
 31
0.0
  0
LINE
  5
265
330
1F
100
AcDbEntity
  8
0
  6
Continuous
 62
     7
370
    25
100
AcDbLine
 10
5533.064442939
 20
6894.5690658978
 30
0.0
 11
5532.670968496
 21
6894.5690658978
 31
0.0
  0
LINE
  5
266
330
1F
100
AcDbEntity
  8
0
  6
Continuous
 62
     7
370
    25
100
AcDbLine
 10
5430.564442939
 20
6851.5690658978
 30
0.0
 11
5533.064442939
 21
6851.5690658978
 31
0.0
  0
LINE
  5
267
330
1F
100
AcDbEntity
  8
0
  6
Continuous
 62
     7
370
    25
100
AcDbLine
 10
5430.564442939
 20
6960.5690658978
 30
0.0
 11
5427.064442939
 21
6960.5690658978
 31
0.0
  0
LINE
  5
268
330
1F
100
AcDbEntity
  8
0
  6
Continuous
 62
     7
370
    25
100
AcDbLine
 10
5427.064442939
 20
6948.0690658978
 30
0.0
 11
5430.564442939
 21
6948.0690658978
 31
0.0
  0
ARC
  5
269
330
1F
100
AcDbEntity
  8
0
  6
Continuous
 62
     7
370
    25
100
AcDbCircle
 10
5523.064442939
 20
6770.3190658978
 30
0.0
 40
10.00000000000091
100
AcDbArc
 50
270.0
 51
0.0
  0
LINE
  5
26A
330
1F
100
AcDbEntity
  8
0
  6
Continuous
 62
     7
370
    25
100
AcDbLine
 10
5430.564442939
 20
6760.3190658978
 30
0.0
 11
5523.064442939
 21
6760.3190658978
 31
0.0
  0
LINE
  5
26B
330
1F
100
AcDbEntity
  8
0
  6
Continuous
 62
     7
370
    25
100
AcDbLine
 10
5430.564442939
 20
6831.4807966984
 30
0.0
 11
5427.064442939
 21
6831.4807966984
 31
0.0
  0
LINE
  5
26C
330
1F
100
AcDbEntity
  8
0
  6
Continuous
 62
     7
370
    25
100
AcDbLine
 10
5427.064442939
 20
6818.9807966984
 30
0.0
 11
5430.564442939
 21
6818.9807966984
 31
0.0
  0
LINE
  5
26D
330
1F
100
AcDbEntity
  8
0
  6
Continuous
 62
     7
370
    25
100
AcDbLine
 10
5533.064442939
 20
6840.5690658978
 30
0.0
 11
5545.564442939
 21
6840.5690658978
 31
0.0
  0
LINE
  5
26E
330
1F
100
AcDbEntity
  8
0
  6
Continuous
 62
     7
370
    25
100
AcDbLine
 10
5545.564442939
 20
6905.5690658978
 30
0.0
 11
5538.064442939
 21
6905.5690658978
 31
0.0
  0
ARC
  5
26F
330
1F
100
AcDbEntity
  8
0
  6
Continuous
 62
     7
370
    25
100
AcDbCircle
 10
5545.564442939
 20
6903.0690658978
 30
0.0
 40
2.499999999999091
100
AcDbArc
 50
0.0
 51
90.0
  0
ARC
  5
270
330
1F
100
AcDbEntity
  8
0
  6
Continuous
 62
     7
370
    25
100
AcDbCircle
 10
5545.564442939
 20
6843.0690658978
 30
0.0
 40
2.5
100
AcDbArc
 50
270.0
 51
0.0
  0
LINE
  5
271
330
1F
100
AcDbEntity
  8
0
  6
Continuous
 62
     7
370
    25
100
AcDbLine
 10
5430.564442939
 20
6774.0690658978
 30
0.0
 11
5427.064442939
 21
6774.0690658978
 31
0.0
  0
LINE
  5
272
330
1F
100
AcDbEntity
  8
0
  6
Continuous
 62
     7
370
    25
100
AcDbLine
 10
5427.064442939
 20
6761.5690658978
 30
0.0
 11
5430.564442939
 21
6761.5690658978
 31
0.0
  0
LINE
  5
273
330
1F
100
AcDbEntity
  8
0
  6
Continuous
 62
     7
370
    25
100
AcDbLine
 10
5430.564442939
 20
6963.8240731646
 30
0.0
 11
5427.064442939
 21
6963.8240731646
 31
0.0
  0
LINE
  5
274
330
1F
100
AcDbEntity
  8
0
  6
Continuous
 62
     7
370
    25
100
AcDbLine
 10
5412.064442939
 20
6827.5690658978
 30
0.0
 11
5411.064442939
 21
6827.5690658978
 31
0.0
  0
LINE
  5
275
330
1F
100
AcDbEntity
  8
0
  6
Continuous
 62
     7
370
    25
100
AcDbLine
 10
5411.064442939
 20
6738.5690658978
 30
0.0
 11
5412.064442939
 21
6738.5690658978
 31
0.0
  0
ARC
  5
276
330
1F
100
AcDbEntity
  8
0
  6
Continuous
 62
     7
370
    25
100
AcDbCircle
 10
5355.9354106809
 20
6783.0690658978
 30
0.0
 40
71.62903225806427
100
AcDbArc
 50
24.760401104
 51
38.407947011
  0
ARC
  5
277
330
1F
100
AcDbEntity
  8
0
  6
Continuous
 62
     7
370
    25
100
AcDbCircle
 10
5355.9354106809
 20
6783.0690658978
 30
0.0
 40
71.62903225806372
100
AcDbArc
 50
321.592052989
 51
335.239598896
  0
LINE
  5
278
330
1F
100
AcDbEntity
  8
0
  6
Continuous
 62
     7
370
    25
100
AcDbLine
 10
5421.4313514882
 20
6812.0690658978
 30
0.0
 11
5420.9793824402
 21
6812.0690658978
 31
0.0
  0
LINE
  5
279
330
1F
100
AcDbEntity
  8
0
  6
Continuous
 62
     7
370
    25
100
AcDbLine
 10
5420.9793824402
 20
6754.0690658978
 30
0.0
 11
5421.4313514882
 21
6754.0690658978
 31
0.0
  0
ARC
  5
27A
330
1F
100
AcDbEntity
  8
0
  6
Continuous
 62
     7
370
    25
100
AcDbCircle
 10
5355.9354106809
 20
6783.0690658978
 30
0.0
 40
71.62903225806416
100
AcDbArc
 50
336.1174094853
 51
23.8825905147
  0
LINE
  5
27B
330
1F
100
AcDbEntity
  8
0
  6
Continuous
 62
     7
370
    25
100
AcDbLine
 10
5412.064442939
 20
6827.5690658978
 30
0.0
 11
5411.064442939
 21
6827.5690658978
 31
0.0
  0
LINE
  5
27C
330
1F
100
AcDbEntity
  8
0
  6
Continuous
 62
     7
370
    25
100
AcDbLine
 10
5411.064442939
 20
6738.5690658978
 30
0.0
 11
5412.064442939
 21
6738.5690658978
 31
0.0
  0
LINE
  5
27D
330
1F
100
AcDbEntity
  8
0
  6
Continuous
 62
     7
370
    25
100
AcDbLine
 10
5421.4313514882
 20
6812.0690658978
 30
0.0
 11
5420.9793824402
 21
6812.0690658978
 31
0.0
  0
LINE
  5
27E
330
1F
100
AcDbEntity
  8
0
  6
Continuous
 62
     7
370
    25
100
AcDbLine
 10
5420.9793824402
 20
6754.0690658978
 30
0.0
 11
5421.4313514882
 21
6754.0690658978
 31
0.0
  0
SPLINE
  5
27F
330
1F
100
AcDbEntity
  8
0
  6
Continuous
 62
     7
370
    25
100
AcDbSpline
210
0.0
220
0.0
230
1.0
 70
     8
 71
     3
 72
     9
 73
     5
 74
     0
 42
0.00000001
 43
0.00000001
 40
0.0
 40
0.0
 40
0.0
 40
0.0
 40
0.6110569497215935
 40
1.0
 40
1.0
 40
1.0
 40
1.0
 10
5350.380513468032
 20
7036.906860378597
 30
0.0
 10
5350.103130064989
 20
7037.364659861488
 30
0.0
 10
5349.649189719217
 20
7038.113852687294
 30
0.0
 10
5349.202120764697
 20
7038.870850311519
 30
0.0
 10
5349.028236401841
 20
7039.165279276539
 30
0.0
  0
SPLINE
  5
280
330
1F
100
AcDbEntity
  8
0
  6
Continuous
 62
     7
370
    25
100
AcDbSpline
210
0.0
220
0.0
230
1.0
 70
     8
 71
     3
 72
     9
 73
     5
 74
     0
 42
0.00000001
 43
0.00000001
 40
0.0
 40
0.0
 40
0.0
 40
0.0
 40
0.6670919182008216
 40
1.0
 40
1.0
 40
1.0
 40
1.0
 10
5351.850649460905
 20
7039.165279276536
 30
0.0
 10
5351.677012889737
 20
7038.8705688599
 30
0.0
 10
5351.41672406532
 20
7038.428785038815
 30
0.0
 10
5351.152428926628
 20
7037.991551748208
 30
0.0
 10
5351.064442938978
 20
7037.845993252133
 30
0.0
  0
LINE
  5
281
330
1F
100
AcDbEntity
  8
0
  6
Continuous
 62
     7
370
    25
100
AcDbLine
 10
5350.7519429314
 20
7037.1127364978
 30
0.0
 11
5350.2564198385
 21
7037.1127364978
 31
0.0
  0
LINE
  5
282
330
1F
100
AcDbEntity
  8
0
  6
Continuous
 62
     7
370
    25
100
AcDbLine
 10
5351.2219106889
 20
6686.4558912507
 30
0.0
 11
5351.5282364018
 21
6686.9728525191
 31
0.0
  0
ARC
  5
283
330
1F
100
AcDbEntity
  8
0
  6
Continuous
 62
     7
370
    25
100
AcDbCircle
 10
5152.064442939
 20
6660.5690658978
 30
0.0
 40
2.500000000000909
100
AcDbArc
 50
90.0
 51
180.0
  0
LINE
  5
284
330
1F
100
AcDbEntity
  8
0
  6
Continuous
 62
     7
370
    25
100
AcDbLine
 10
5149.564442939
 20
6660.5690658978
 30
0.0
 11
5149.564442939
 21
6657.100329473
 31
0.0
  0
ARC
  5
285
330
1F
100
AcDbEntity
  8
0
  6
Continuous
 62
     7
370
    25
100
AcDbCircle
 10
5152.064442939
 20
6657.100329473
 30
0.0
 40
2.500000000000426
100
AcDbArc
 50
180.0
 51
244.0555202276
  0
ARC
  5
286
330
1F
100
AcDbEntity
  8
0
  6
Continuous
 62
     7
370
    25
100
AcDbCircle
 10
5169.564442939
 20
6693.0690658978
 30
0.0
 40
42.50000000000017
100
AcDbArc
 50
244.0555202276
 51
252.8953648234
  0
LINE
  5
287
330
1F
100
AcDbEntity
  8
0
  6
Continuous
 62
     7
370
    25
100
AcDbLine
 10
5249.564442939
 20
6660.5690658978
 30
0.0
 11
5249.564442939
 21
6657.100329473
 31
0.0
  0
LINE
  5
288
330
1F
100
AcDbEntity
  8
0
  6
Continuous
 62
     7
370
    25
100
AcDbLine
 10
5289.564442939
 20
6657.100329473
 30
0.0
 11
5289.564442939
 21
6660.5690658978
 31
0.0
  0
ARC
  5
289
330
1F
100
AcDbEntity
  8
0
  6
Continuous
 62
     7
370
    25
100
AcDbCircle
 10
5252.064442939
 20
6657.100329473
 30
0.0
 40
2.500000000000426
100
AcDbArc
 50
180.0
 51
244.0555202276
  0
ARC
  5
28A
330
1F
100
AcDbEntity
  8
0
  6
Continuous
 62
     7
370
    25
100
AcDbCircle
 10
5287.064442939
 20
6657.100329473
 30
0.0
 40
2.500000000000426
100
AcDbArc
 50
295.9444797724
 51
0.0
  0
ARC
  5
28B
330
1F
100
AcDbEntity
  8
0
  6
Continuous
 62
     7
370
    25
100
AcDbCircle
 10
5252.064442939
 20
6660.5690658978
 30
0.0
 40
2.500000000000909
100
AcDbArc
 50
90.0
 51
180.0
  0
ARC
  5
28C
330
1F
100
AcDbEntity
  8
0
  6
Continuous
 62
     7
370
    25
100
AcDbCircle
 10
5287.064442939
 20
6660.5690658978
 30
0.0
 40
2.500000000000909
100
AcDbArc
 50
0.0
 51
90.0
  0
ARC
  5
28D
330
1F
100
AcDbEntity
  8
0
  6
Continuous
 62
     7
370
    25
100
AcDbCircle
 10
5269.564442939
 20
6693.0690658978
 30
0.0
 40
42.4999999999999
100
AcDbArc
 50
287.1046351766
 51
295.9444797724
  0
ARC
  5
28E
330
1F
100
AcDbEntity
  8
0
  6
Continuous
 62
     7
370
    25
100
AcDbCircle
 10
5269.564442939
 20
6693.0690658978
 30
0.0
 40
42.4999999999999
100
AcDbArc
 50
244.0555202276
 51
252.8953648234
  0
SPLINE
  5
28F
330
1F
100
AcDbEntity
  8
0
  6
Continuous
 62
     7
370
    25
100
AcDbSpline
210
0.0
220
0.0
230
1.0
 70
     8
 71
     3
 72
     9
 73
     5
 74
     0
 42
0.00000001
 43
0.00000001
 40
0.0
 40
0.0
 40
0.0
 40
0.0
 40
0.4999917733443513
 40
1.0
 40
1.0
 40
1.0
 40
1.0
 10
5182.795224355222
 20
6655.40927400321
 30
0.0
 10
5182.343897962678
 20
6655.148534603251
 30
0.0
 10
5181.441230325716
 20
6654.627047223138
 30
0.0
 10
5180.538548133816
 20
6654.105586252418
 30
0.0
 10
5180.087199611811
 20
6653.844851477178
 30
0.0
  0
SPLINE
  5
290
330
1F
100
AcDbEntity
  8
0
  6
Continuous
 62
     7
370
    25
100
AcDbSpline
210
0.0
220
0.0
230
1.0
 70
     8
 71
     3
 72
     9
 73
     5
 74
     0
 42
0.00000001
 43
0.00000001
 40
0.0
 40
0.0
 40
0.0
 40
0.0
 40
0.5045733824811275
 40
1.0
 40
1.0
 40
1.0
 40
1.0
 10
5180.087270378825
 20
6653.16823997423
 30
0.0
 10
5180.538615439401
 20
6652.907507214423
 30
0.0
 10
5181.433123703704
 20
6652.390768185256
 30
0.0
 10
5182.327616832911
 20
6651.874003314997
 30
0.0
 10
5182.770772538308
 20
6651.617984243273
 30
0.0
  0
SPLINE
  5
291
330
1F
100
AcDbEntity
  8
0
  6
Continuous
 62
     7
370
    25
100
AcDbSpline
210
0.0
220
0.0
230
1.0
 70
     8
 71
     3
 72
     9
 73
     5
 74
     0
 42
0.00000001
 43
0.00000001
 40
0.0
 40
0.0
 40
0.0
 40
0.0
 40
0.5045733824810742
 40
1.0
 40
1.0
 40
1.0
 40
1.0
 10
5180.087270378822
 20
6658.16823997423
 30
0.0
 10
5180.538615439399
 20
6657.907507214423
 30
0.0
 10
5181.433123703702
 20
6657.390768185256
 30
0.0
 10
5182.327616832911
 20
6656.874003314997
 30
0.0
 10
5182.770772538308
 20
6656.617984243272
 30
0.0
  0
SPLINE
  5
292
330
1F
100
AcDbEntity
  8
0
  6
Continuous
 62
     7
370
    25
100
AcDbSpline
210
0.0
220
0.0
230
1.0
 70
     8
 71
     3
 72
     9
 73
     5
 74
     0
 42
0.00000001
 43
0.00000001
 40
0.0
 40
0.0
 40
0.0
 40
0.0
 40
0.4999917733443061
 40
1.0
 40
1.0
 40
1.0
 40
1.0
 10
5182.79522435522
 20
6660.40927400321
 30
0.0
 10
5182.343897962675
 20
6660.148534603251
 30
0.0
 10
5181.441230325713
 20
6659.627047223138
 30
0.0
 10
5180.538548133813
 20
6659.105586252417
 30
0.0
 10
5180.087199611808
 20
6658.844851477178
 30
0.0
  0
SPLINE
  5
293
330
1F
100
AcDbEntity
  8
0
  6
Continuous
 62
     7
370
    25
100
AcDbSpline
210
0.0
220
0.0
230
1.0
 70
     8
 71
     3
 72
     9
 73
     5
 74
     0
 42
0.00000001
 43
0.00000001
 40
0.0
 40
0.0
 40
0.0
 40
0.0
 40
0.5045641587134494
 40
1.0
 40
1.0
 40
1.0
 40
1.0
 10
5259.041686266149
 20
6651.344851477176
 30
0.0
 10
5258.590337733091
 20
6651.605586232362
 30
0.0
 10
5257.695806234443
 20
6652.122338662521
 30
0.0
 10
5256.801289159311
 20
6652.63911726361
 30
0.0
 10
5256.358113339647
 20
6652.8951479046
 30
0.0
  0
SPLINE
  5
294
330
1F
100
AcDbEntity
  8
0
  6
Continuous
 62
     7
370
    25
100
AcDbSpline
210
0.0
220
0.0
230
1.0
 70
     8
 71
     3
 72
     9
 73
     5
 74
     0
 42
0.00000001
 43
0.00000001
 40
0.0
 40
0.0
 40
0.0
 40
0.0
 40
0.499991876780267
 40
1.0
 40
1.0
 40
1.0
 40
1.0
 10
5256.333612110988
 20
6649.103829596466
 30
0.0
 10
5256.784934858163
 20
6649.364566942597
 30
0.0
 10
5257.687595017528
 20
6649.886050107104
 30
0.0
 10
5258.59027045018
 20
6650.40750719458
 30
0.0
 10
5259.041615499135
 20
6650.668239974229
 30
0.0
  0
SPLINE
  5
295
330
1F
100
AcDbEntity
  8
0
  6
Continuous
 62
     7
370
    25
100
AcDbSpline
210
0.0
220
0.0
230
1.0
 70
     8
 71
     3
 72
     9
 73
     5
 74
     0
 42
0.00000001
 43
0.00000001
 40
0.0
 40
0.0
 40
0.0
 40
0.0
 40
0.470712886721764
 40
1.0
 40
1.0
 40
1.0
 40
1.0
 10
5180.258945106973
 20
6663.069065897821
 30
0.0
 10
5180.653065020048
 20
6662.841390756931
 30
0.0
 10
5181.490348052218
 20
6662.357709202182
 30
0.0
 10
5182.327616917541
 20
6661.874003459495
 30
0.0
 10
5182.770772538306
 20
6661.617984243272
 30
0.0
  0
SPLINE
  5
296
330
1F
100
AcDbEntity
  8
0
  6
Continuous
 62
     7
370
    25
100
AcDbSpline
210
0.0
220
0.0
230
1.0
 70
     8
 71
     3
 72
     9
 73
     5
 74
     0
 42
0.00000001
 43
0.00000001
 40
0.0
 40
0.0
 40
0.0
 40
0.0
 40
0.8309567355812264
 40
1.0
 40
1.0
 40
1.0
 40
1.0
 10
5182.795224355222
 20
6650.40927400321
 30
0.0
 10
5182.373348803538
 20
6650.165547007235
 30
0.0
 10
5181.865650227163
 20
6649.872238119371
 30
0.0
 10
5181.357943947231
 20
6649.578943209309
 30
0.0
 10
5181.272119620307
 20
6649.529363680274
 30
0.0
  0
LINE
  5
297
330
1F
100
AcDbEntity
  8
0
  6
Continuous
 62
     7
370
    25
100
AcDbLine
 10
5181.1020747481
 20
6649.0314340887
 30
0.0
 11
5185.064442939
 21
6645.0690658978
 31
0.0
  0
LINE
  5
298
330
1F
100
AcDbEntity
  8
0
  6
Continuous
 62
     7
370
    25
100
AcDbLine
 10
5254.064442939
 20
6645.0690658978
 30
0.0
 11
5256.6813794273
 21
6647.6860023861
 31
0.0
  0
LINE
  5
299
330
1F
100
AcDbEntity
  8
0
  6
Continuous
 62
     7
370
    25
100
AcDbLine
 10
5256.3581133396
 20
6647.8816492027
 30
0.0
 11
5256.3581133396
 21
6649.1179842433
 31
0.0
  0
LINE
  5
29A
330
1F
100
AcDbEntity
  8
0
  6
Continuous
 62
     7
370
    25
100
AcDbLine
 10
5180.064442939
 20
6658.8190658978
 30
0.0
 11
5180.064442939
 21
6658.1940658842
 31
0.0
  0
LINE
  5
29B
330
1F
100
AcDbEntity
  8
0
  6
Continuous
 62
     7
370
    25
100
AcDbLine
 10
5180.064442939
 20
6653.8190658978
 30
0.0
 11
5180.064442939
 21
6653.1940658842
 31
0.0
  0
LINE
  5
29C
330
1F
100
AcDbEntity
  8
0
  6
Continuous
 62
     7
370
    25
100
AcDbLine
 10
5182.7707725383
 20
6661.6316492027
 30
0.0
 11
5182.7707725383
 21
6660.3951479046
 31
0.0
  0
LINE
  5
29D
330
1F
100
AcDbEntity
  8
0
  6
Continuous
 62
     7
370
    25
100
AcDbLine
 10
5182.7707725383
 20
6651.6316492027
 30
0.0
 11
5182.7707725383
 21
6650.3951478844
 31
0.0
  0
LINE
  5
29E
330
1F
100
AcDbEntity
  8
0
  6
Continuous
 62
     7
370
    25
100
AcDbLine
 10
5182.7707725383
 20
6656.6316492027
 30
0.0
 11
5182.7707725383
 21
6655.3951479046
 31
0.0
  0
LINE
  5
29F
330
1F
100
AcDbEntity
  8
0
  6
Continuous
 62
     7
370
    25
100
AcDbLine
 10
5684.0198046018
 20
7853.4940263235
 30
0.0
 11
5685.586675881
 21
7853.0062448466
 31
0.0
  0
LINE
  5
2A0
330
1F
100
AcDbEntity
  8
0
  6
Continuous
 62
     7
370
    25
100
AcDbLine
 10
5719.7129298607
 20
7956.5939813698
 30
0.0
 11
5718.2626132993
 21
7957.101649183
 31
0.0
  0
SPLINE
  5
2A1
330
1F
100
AcDbEntity
  8
0
  6
Continuous
 62
     7
370
    25
100
AcDbSpline
210
0.0
220
0.0
230
1.0
 70
     8
 71
     3
 72
    11
 73
     7
 74
     0
 42
0.00000001
 43
0.00000001
 40
0.0
 40
0.0
 40
0.0
 40
0.0
 40
0.0899542914910931
 40
0.421606141447599
 40
0.7759306640439791
 40
0.9999999999999999
 40
0.9999999999999999
 40
0.9999999999999999
 40
0.9999999999999999
 10
5721.397984201338
 20
7954.820148405041
 30
0.0
 10
5721.385564627117
 20
7954.888754527218
 30
0.0
 10
5721.327355411311
 20
7955.210304082786
 30
0.0
 10
5720.957102939647
 20
7955.805272710438
 30
0.0
 10
5720.361993339997
 20
7956.367558174034
 30
0.0
 10
5719.869721719187
 20
7956.498452077595
 30
0.0
 10
5719.679016071894
 20
7956.549160275163
 30
0.0
  0
SPLINE
  5
2A2
330
1F
100
AcDbEntity
  8
0
  6
Continuous
 62
     7
370
    25
100
AcDbSpline
210
0.0
220
0.0
230
1.0
 70
     8
 71
     3
 72
    11
 73
     7
 74
     0
 42
0.00000001
 43
0.00000001
 40
0.0
 40
0.0
 40
0.0
 40
0.0
 40
0.2339156723693505
 40
0.5550297130432845
 40
0.8165592239671692
 40
1.0
 40
1.0
 40
1.0
 40
1.0
 10
5685.597810962444
 20
7853.04197281407
 30
0.0
 10
5685.81711557984
 20
7852.976353343008
 30
0.0
 10
5686.337476518591
 20
7852.820652975333
 30
0.0
 10
5687.139589777651
 20
7852.978166200313
 30
0.0
 10
5687.791316339556
 20
7853.31311610387
 30
0.0
 10
5688.040821367658
 20
7853.562859294483
 30
0.0
 10
5688.143680810909
 20
7853.665816921178
 30
0.0
  0
LINE
  5
2A3
330
1F
100
AcDbEntity
  8
0
  6
Continuous
 62
     7
370
    25
100
AcDbLine
 10
5689.0340659403
 20
7855.4709229649
 30
0.0
 11
5721.1677910517
 21
7952.7326655749
 31
0.0
  0
SPLINE
  5
2A4
330
1F
100
AcDbEntity
  8
0
  6
Continuous
 62
     7
370
    25
100
AcDbSpline
210
0.0
220
0.0
230
1.0
 70
     8
 71
     3
 72
     9
 73
     5
 74
     0
 42
0.00000001
 43
0.00000001
 40
0.0
 40
0.0
 40
0.0
 40
0.0
 40
0.499966392733062
 40
1.0
 40
1.0
 40
1.0
 40
1.0
 10
5950.191460078176
 20
8087.169734604906
 30
0.0
 10
5949.897227382165
 20
8086.986592902164
 30
0.0
 10
5949.308722434058
 20
8086.62028487546
 30
0.0
 10
5948.717223786445
 20
8086.254051988759
 30
0.0
 10
5948.421454583985
 20
8086.070923237321
 30
0.0
  0
LINE
  5
2A5
330
1F
100
AcDbEntity
  8
0
  6
Continuous
 62
     7
370
    25
100
AcDbLine
 10
5947.616833359
 20
8085.8270138552
 30
0.0
 11
5950.116833359
 21
8083.3270138552
 31
0.0
  0
LINE
  5
2A6
330
1F
100
AcDbEntity
  8
0
  6
Continuous
 62
     7
370
    25
100
AcDbLine
 10
6035.4771151334
 20
8079.424063429
 30
0.0
 11
6036.1362354548
 21
8077.6129385169
 31
0.0
  0
LINE
  5
2A7
330
1F
100
AcDbEntity
  8
0
  6
Continuous
 62
     7
370
    25
100
AcDbLine
 10
6059.6288646141
 20
8086.162580333
 30
0.0
 11
6058.9724215801
 21
8087.9663486189
 31
0.0
  0
SPLINE
  5
2A8
330
1F
100
AcDbEntity
  8
0
  6
Continuous
 62
     7
370
    25
100
AcDbSpline
210
0.0
220
0.0
230
1.0
 70
     8
 71
     3
 72
    20
 73
    16
 74
     0
 42
0.00000001
 43
0.00000001
 40
0.0
 40
0.0
 40
0.0
 40
0.0
 40
0.0546235098723543
 40
0.1143990449749373
 40
0.1792481326700937
 40
0.2313424812915771
 40
0.2865714690716388
 40
0.3450303910367496
 40
0.4066965729199817
 40
0.4935542911187419
 40
0.5849859409899414
 40
0.6810589549358527
 40
0.7822378657908473
 40
0.8886538387148972
 40
1.0
 40
1.0
 40
1.0
 40
1.0
 10
5734.978110165695
 20
8283.106190375576
 30
0.0
 10
5723.652546083277
 20
8279.410393352768
 30
0.0
 10
5699.933204029669
 20
8271.67021607711
 30
0.0
 10
5664.290025746604
 20
8255.452324136846
 30
0.0
 10
5631.010278372195
 20
8235.881598622449
 30
0.0
 10
5600.96897799001
 20
8213.289340348583
 30
0.0
 10
5574.160427914474
 20
8188.985938377613
 30
0.0
 10
5548.203994843784
 20
8160.859677793413
 30
0.0
 10
5520.493704302909
 20
8125.191581934306
 30
0.0
 10
5492.40383675404
 20
8080.946970354862
 30
0.0
 10
5465.638730250966
 20
8027.355536554143
 30
0.0
 10
5442.977486874616
 20
7968.555948225675
 30
0.0
 10
5424.381147110605
 20
7904.965596922084
 30
0.0
 10
5409.255495959052
 20
7837.057687028868
 30
0.0
 10
5401.586248420374
 20
7790.205629032681
 30
0.0
 10
5397.664807824292
 20
7766.249228967407
 30
0.0
  0
SPLINE
  5
2A9
330
1F
100
AcDbEntity
  8
0
  6
Continuous
 62
     7
370
    25
100
AcDbSpline
210
0.0
220
0.0
230
1.0
 70
     8
 71
     3
 72
    14
 73
    10
 74
     0
 42
0.00000001
 43
0.00000001
 40
0.0
 40
0.0
 40
0.0
 40
0.0
 40
0.0363316189133333
 40
0.2235860594704402
 40
0.3996776972892453
 40
0.5644234427407205
 40
0.7184606337560749
 40
0.8630795581158843
 40
1.0
 40
1.0
 40
1.0
 40
1.0
 10
5718.332125375067
 20
7956.750675785361
 30
0.0
 10
5719.131094858696
 20
7958.607316413131
 30
0.0
 10
5724.047981136399
 20
7970.033148078002
 30
0.0
 10
5735.013329278971
 20
7989.450728721867
 30
0.0
 10
5751.142553003229
 20
8014.023209448281
 30
0.0
 10
5768.753486974937
 20
8035.275210585132
 30
0.0
 10
5787.457046303341
 20
8053.070378663209
 30
0.0
 10
5806.954831008324
 20
8067.641571982343
 30
0.0
 10
5820.960072027648
 20
8074.69851410864
 30
0.0
 10
5827.771211139888
 20
8078.130501781178
 30
0.0
  0
SPLINE
  5
2AA
330
1F
100
AcDbEntity
  8
0
  6
Continuous
 62
     7
370
    25
100
AcDbSpline
210
0.0
220
0.0
230
1.0
 70
     8
 71
     3
 72
    10
 73
     6
 74
     0
 42
0.00000001
 43
0.00000001
 40
0.0
 40
0.0
 40
0.0
 40
0.0
 40
0.3629856722402184
 40
0.7502302321542875
 40
1.0
 40
1.0
 40
1.0
 40
1.0
 10
5672.679477479924
 20
7766.249228967407
 30
0.0
 10
5673.325151422294
 20
7776.874224864504
 30
0.0
 10
5674.659650684182
 20
7798.834301385768
 30
0.0
 10
5678.740530237655
 20
7827.918460040958
 30
0.0
 10
5682.71790923527
 20
7846.16930881453
 30
0.0
 10
5684.277417374376
 20
7853.32536490701
 30
0.0
  0
SPLINE
  5
2AB
330
1F
100
AcDbEntity
  8
0
  6
Continuous
 62
     7
370
    25
100
AcDbSpline
210
0.0
220
0.0
230
1.0
 70
     8
 71
     3
 72
    29
 73
    25
 74
     0
 42
0.00000001
 43
0.00000001
 40
0.0
 40
0.0
 40
0.0
 40
0.0
 40
0.0678971161476601
 40
0.131015006217679
 40
0.1896504737738516
 40
0.2438568466615987
 40
0.2935785227164259
 40
0.3387622339304762
 40
0.3870163696891157
 40
0.4287751283034136
 40
0.464938727854559
 40
0.4998597218510267
 40
0.5341111590720067
 40
0.5897196257835378
 40
0.6415264733513812
 40
0.6822269181738742
 40
0.6969649911277018
 40
0.71862843003932
 40
0.7474897686061007
 40
0.7835619008078635
 40
0.8268715639693162
 40
0.8774200273397991
 40
0.9351459000155949
 40
1.0
 40
1.0
 40
1.0
 40
1.0
 10
6223.126019279832
 20
8148.330660036329
 30
0.0
 10
6215.992099490131
 20
8158.249003734952
 30
0.0
 10
6202.226411068676
 20
8177.38754650484
 30
0.0
 10
6178.100473836722
 20
8201.624752195063
 30
0.0
 10
6153.732161904833
 20
8221.817243973497
 30
0.0
 10
6129.595828309562
 20
8238.334911310469
 30
0.0
 10
6106.384924284683
 20
8251.757195387427
 30
0.0
 10
6083.304794676076
 20
8263.147837248618
 30
0.0
 10
6060.883170779503
 20
8272.535099066588
 30
0.0
 10
6039.497515647941
 20
8280.08841665641
 30
0.0
 10
6020.075652421798
 20
8285.92862999773
 30
0.0
 10
6001.733814802835
 20
8290.615515288702
 30
0.0
 10
5979.805082134804
 20
8295.30470390625
 30
0.0
 10
5954.664759579134
 20
8299.38904929997
 30
0.0
 10
5928.186894907206
 20
8302.175959073391
 30
0.0
 10
5908.946082709293
 20
8303.31103830597
 30
0.0
 10
5895.099970951919
 20
8303.753873971362
 30
0.0
 10
5883.374519799328
 20
8303.921230657383
 30
0.0
 10
5867.814395113095
 20
8303.764135348756
 30
0.0
 10
5848.379536519697
 20
8302.959540587539
 30
0.0
 10
5825.098837833656
 20
8301.130095509434
 30
0.0
 10
5798.070710228755
 20
8297.727149642582
 30
0.0
 10
5767.415647252903
 20
8292.225703063063
 30
0.0
 10
5746.201744457325
 20
8286.261608829916
 30
0.0
 10
5734.97798136531
 20
8283.106150761856
 30
0.0
  0
SPLINE
  5
2AC
330
1F
100
AcDbEntity
  8
0
  6
Continuous
 62
     7
370
    25
100
AcDbSpline
210
0.0
220
0.0
230
1.0
 70
     8
 71
     3
 72
     9
 73
     5
 74
     0
 42
0.00000001
 43
0.00000001
 40
0.0
 40
0.0
 40
0.0
 40
0.0
 40
0.3750079643870413
 40
0.9999999999999999
 40
0.9999999999999999
 40
0.9999999999999999
 40
0.9999999999999999
 10
5965.568848364172
 20
8082.404493524463
 30
0.0
 10
5969.781239353004
 20
8080.818117420606
 30
0.0
 10
5981.014043423495
 20
8076.587870987174
 30
0.0
 10
5991.216910458797
 20
8070.227455605503
 30
0.0
 10
5997.59362109628
 20
8066.252246648768
 30
0.0
  0
SPLINE
  5
2AD
330
1F
100
AcDbEntity
  8
0
  6
Continuous
 62
     7
370
    25
100
AcDbSpline
210
0.0
220
0.0
230
1.0
 70
     8
 71
     3
 72
    17
 73
    13
 74
     0
 42
0.00000001
 43
0.00000001
 40
0.0
 40
0.0
 40
0.0
 40
0.0
 40
0.2001250474162522
 40
0.3630854361319046
 40
0.4874187498739815
 40
0.5725288840452875
 40
0.6367261124444858
 40
0.7063799806112957
 40
0.7816423446606042
 40
0.8661879231005671
 40
0.9740878916324386
 40
1.0
 40
1.0
 40
1.0
 40
1.0
 10
5827.771119858244
 20
8078.130469212711
 30
0.0
 10
5835.367287080105
 20
8081.17853050585
 30
0.0
 10
5849.148958711358
 20
8086.708606217334
 30
0.0
 10
5868.656251166552
 20
8090.982270538096
 30
0.0
 10
5883.736226055533
 20
8092.984792193297
 30
0.0
 10
5894.892671677638
 20
8093.693782059269
 30
0.0
 10
5903.833410691764
 20
8093.841200736728
 30
0.0
 10
5912.369772651085
 20
8093.610271306082
 30
0.0
 10
5921.719318587425
 20
8092.932661836169
 30
0.0
 10
5932.550020280682
 20
8091.491304632204
 30
0.0
 10
5941.365537883252
 20
8089.999541697409
 30
0.0
 10
5946.608650374717
 20
8088.462130615832
 30
0.0
 10
5947.623955586401
 20
8088.164417857206
 30
0.0
  0
LINE
  5
2AE
330
1F
100
AcDbEntity
  8
0
  6
Continuous
 62
     7
370
    25
100
AcDbLine
 10
5602.5086047811
 20
7021.0961252424
 30
0.0
 11
5495.814442939
 21
7021.0961252424
 31
0.0
  0
LINE
  5
2AF
330
1F
100
AcDbEntity
  8
0
  6
Continuous
 62
     7
370
    25
100
AcDbLine
 10
5455.314442939
 20
7021.0961252424
 30
0.0
 11
5427.064442939
 21
7021.0961252424
 31
0.0
  0
LINE
  5
2B0
330
1F
100
AcDbEntity
  8
0
  6
Continuous
 62
     7
370
    25
100
AcDbLine
 10
5141.064442939
 20
7021.0961252424
 30
0.0
 11
5085.0086047811
 21
7021.0961252424
 31
0.0
  0
LINE
  5
2B1
330
1F
100
AcDbEntity
  8
0
  6
Continuous
 62
     7
370
    25
100
AcDbLine
 10
5595.0086046107
 20
6398.5961252424
 30
0.0
 11
5092.5086047811
 21
6398.5961252424
 31
0.0
  0
LINE
  5
2B2
330
1F
100
AcDbEntity
  8
0
  6
Continuous
 62
     7
370
    25
100
AcDbLine
 10
5063.7586047811
 20
7102.4131252424
 30
0.0
 11
5056.2586047811
 21
7102.4131252424
 31
0.0
  0
LINE
  5
2B3
330
1F
100
AcDbEntity
  8
0
  6
Continuous
 62
     7
370
    25
100
AcDbLine
 10
5063.7586047811
 20
6888.5961252424
 30
0.0
 11
5063.7586047811
 21
7102.4131252424
 31
0.0
  0
LINE
  5
2B4
330
1F
100
AcDbEntity
  8
0
  6
Continuous
 62
     7
370
    25
100
AcDbLine
 10
5056.2586047811
 20
6888.5961252424
 30
0.0
 11
5063.7586047811
 21
6888.5961252424
 31
0.0
  0
LINE
  5
2B5
330
1F
100
AcDbEntity
  8
0
  6
Continuous
 62
     7
370
    25
100
AcDbLine
 10
5056.2586047811
 20
6888.5961252424
 30
0.0
 11
5056.2586047811
 21
7102.4131252424
 31
0.0
  0
ARC
  5
2B6
330
1F
100
AcDbEntity
  8
0
  6
Continuous
 62
     7
370
    25
100
AcDbCircle
 10
5067.4416047811
 20
7102.4131252424
 30
0.0
 40
3.683000000000902
100
AcDbArc
 50
90.0
 51
180.0
  0
ARC
  5
2B7
330
1F
100
AcDbEntity
  8
0
  6
Continuous
 62
     7
370
    25
100
AcDbCircle
 10
5067.4416047811
 20
7102.4131252424
 30
0.0
 40
11.18299999999999
100
AcDbArc
 50
90.0
 51
180.0
  0
LINE
  5
2B8
330
1F
100
AcDbEntity
  8
0
  6
Continuous
 62
     7
370
    25
100
AcDbLine
 10
5067.4416047811
 20
7113.5961252424
 30
0.0
 11
5067.4416047811
 21
7106.0961252424
 31
0.0
  0
LINE
  5
2B9
330
1F
100
AcDbEntity
  8
0
  6
Continuous
 62
     7
370
    25
100
AcDbLine
 10
5063.7586047811
 20
6863.5961252424
 30
0.0
 11
5056.2586047811
 21
6863.5961252424
 31
0.0
  0
LINE
  5
2BA
330
1F
100
AcDbEntity
  8
0
  6
Continuous
 62
     7
370
    25
100
AcDbLine
 10
5063.7586047811
 20
6888.5961252424
 30
0.0
 11
5063.7586047811
 21
6863.5961252424
 31
0.0
  0
LINE
  5
2BB
330
1F
100
AcDbEntity
  8
0
  6
Continuous
 62
     7
370
    25
100
AcDbLine
 10
5056.2586047811
 20
6863.5961252424
 30
0.0
 11
5056.2586047811
 21
6888.5961252424
 31
0.0
  0
LINE
  5
2BC
330
1F
100
AcDbEntity
  8
0
  6
Continuous
 62
     7
370
    25
100
AcDbLine
 10
5343.7586047811
 20
7106.0961252424
 30
0.0
 11
5343.7586047811
 21
7113.5961252424
 31
0.0
  0
LINE
  5
2BD
330
1F
100
AcDbEntity
  8
0
  6
Continuous
 62
     7
370
    25
100
AcDbLine
 10
5067.4416047811
 20
7113.5961252424
 30
0.0
 11
5343.7586047811
 21
7113.5961252424
 31
0.0
  0
LINE
  5
2BE
330
1F
100
AcDbEntity
  8
0
  6
Continuous
 62
     7
370
    25
100
AcDbLine
 10
5067.4416047811
 20
7106.0961252424
 30
0.0
 11
5343.7586047811
 21
7106.0961252424
 31
0.0
  0
LINE
  5
2BF
330
1F
100
AcDbEntity
  8
0
  6
Continuous
 62
     7
370
    25
100
AcDbLine
 10
5606.2586047811
 20
7113.5961252424
 30
0.0
 11
5343.7586047811
 21
7113.5961252424
 31
0.0
  0
LINE
  5
2C0
330
1F
100
AcDbEntity
  8
0
  6
Continuous
 62
     7
370
    25
100
AcDbLine
 10
5606.2586047811
 20
7106.0961252424
 30
0.0
 11
5343.7586047811
 21
7106.0961252424
 31
0.0
  0
LINE
  5
2C1
330
1F
100
AcDbEntity
  8
0
  6
Continuous
 62
     7
370
    25
100
AcDbLine
 10
5430.564442939
 20
6851.4690167156
 30
0.0
 11
5430.564442939
 21
6893.2185075774
 31
0.0
  0
ARC
  5
2C2
330
1F
100
AcDbEntity
  8
0
  6
Continuous
 62
     7
370
    25
100
AcDbCircle
 10
5522.1167980179
 20
6874.3154535975
 30
0.0
 40
25.86632432882469
100
AcDbArc
 50
4.9004764201
 51
24.2234485089
  0
ARC
  5
2C3
330
1F
100
AcDbEntity
  8
0
  6
Continuous
 62
     7
370
    25
100
AcDbCircle
 10
5535.9576812573
 20
6883.5730918039
 30
0.0
 40
9.841724411158927
100
AcDbArc
 50
352.0851454828
 51
7.9148545172
  0
ARC
  5
2C4
330
1F
100
AcDbEntity
  8
0
  6
Continuous
 62
     7
370
    25
100
AcDbCircle
 10
5522.1167980179
 20
6871.6050162966
 30
0.0
 40
25.86632432883696
100
AcDbArc
 50
4.9004764201
 51
24.2234485089
  0
ARC
  5
2C5
330
1F
100
AcDbEntity
  8
0
  6
Continuous
 62
     7
370
    25
100
AcDbCircle
 10
5535.6940762908
 20
6875.5752691272
 30
0.0
 40
12.32093557131354
100
AcDbArc
 50
324.3474136847
 51
351.7845197171
  0
ARC
  5
2C6
330
1F
100
AcDbEntity
  8
0
  6
Continuous
 62
     7
370
    25
100
AcDbCircle
 10
5522.2264965376
 20
6866.2929726456
 30
0.0
 40
23.57295261943582
100
AcDbArc
 50
354.8870565456
 51
5.1129434544
  0
ARC
  5
2C7
330
1F
100
AcDbEntity
  8
0
  6
Continuous
 62
     7
370
    25
100
AcDbCircle
 10
5535.6940762909
 20
6871.3736587648
 30
0.0
 40
12.320935571296
100
AcDbArc
 50
324.3474136847
 51
351.7845197171
  0
ARC
  5
2C8
330
1F
100
AcDbEntity
  8
0
  6
Continuous
 62
     7
370
    25
100
AcDbCircle
 10
5522.6562709151
 20
6874.4444014692
 30
0.0
 40
25.32128035437626
100
AcDbArc
 50
349.0003887853
 51
355.1952497102
  0
LWPOLYLINE
  5
2C9
330
1F
100
AcDbEntity
  8
0
  6
Continuous
 62
     7
370
    25
100
AcDbPolyline
 90
        3
 70
   128
 43
0.0
 10
5547.8885702202
 20
6872.323479367
 10
5547.7751363544
 20
6873.0167055744
 10
5547.7646734106
 20
6873.0690658978
  0
LINE
  5
2CA
330
1F
100
AcDbEntity
  8
0
  6
Continuous
 62
     7
370
    25
100
AcDbLine
 10
5546.4660761381
 20
6869.6130420661
 30
0.0
 11
5547.8885702202
 21
6869.6130420661
 31
0.0
  0
LINE
  5
2CB
330
1F
100
AcDbEntity
  8
0
  6
Continuous
 62
     7
370
    25
100
AcDbLine
 10
5547.5123608148
 20
6876.5250897295
 30
0.0
 11
5547.8885702202
 21
6876.5250897295
 31
0.0
  0
LINE
  5
2CC
330
1F
100
AcDbEntity
  8
0
  6
Continuous
 62
     7
370
    25
100
AcDbLine
 10
5547.8885702202
 20
6872.323479367
 30
0.0
 11
5547.5865586974
 21
6872.323479367
 31
0.0
  0
LINE
  5
2CD
330
1F
100
AcDbEntity
  8
0
  6
Continuous
 62
     7
370
    25
100
AcDbLine
 10
5455.314442939
 20
7048.0690658978
 30
0.0
 11
5495.814442939
 21
7048.0690658978
 31
0.0
  0
LINE
  5
2CE
330
1F
100
AcDbEntity
  8
0
  6
Continuous
 62
     7
370
    25
100
AcDbLine
 10
5427.064442939
 20
6901.0690658978
 30
0.0
 11
5427.064442939
 21
6838.1302839466
 31
0.0
  0
LINE
  5
2CF
330
1F
100
AcDbEntity
  8
0
  6
Continuous
 62
     7
370
    25
100
AcDbLine
 10
5411.064442939
 20
6838.1302839466
 30
0.0
 11
5427.064442939
 21
6838.1302839466
 31
0.0
  0
LINE
  5
2D0
330
1F
100
AcDbEntity
  8
0
  6
Continuous
 62
     7
370
    25
100
AcDbLine
 10
5411.064442939
 20
6901.0690658978
 30
0.0
 11
5427.064442939
 21
6901.0690658978
 31
0.0
  0
LINE
  5
2D1
330
1F
100
AcDbEntity
  8
0
  6
Continuous
 62
     7
370
    25
100
AcDbLine
 10
5411.064442939
 20
7013.0690658978
 30
0.0
 11
5427.064442939
 21
7013.0690658978
 31
0.0
  0
LINE
  5
2D2
330
1F
100
AcDbEntity
  8
0
  6
Continuous
 62
     7
370
    25
100
AcDbLine
 10
5411.064442939
 20
7023.0690658978
 30
0.0
 11
5427.064442939
 21
7023.0690658978
 31
0.0
  0
LINE
  5
2D3
330
1F
100
AcDbEntity
  8
0
  6
Continuous
 62
     7
370
    25
100
AcDbLine
 10
5427.064442939
 20
7023.0690658978
 30
0.0
 11
5427.064442939
 21
7013.0690658978
 31
0.0
  0
LINE
  5
2D4
330
1F
100
AcDbEntity
  8
0
  6
Continuous
 62
     7
370
    25
100
AcDbLine
 10
5427.064442939
 20
7013.0690658978
 30
0.0
 11
5427.064442939
 21
6901.0690658978
 31
0.0
  0
LINE
  5
2D5
330
1F
100
AcDbEntity
  8
0
  6
Continuous
 62
     7
370
    25
100
AcDbLine
 10
5427.064442939
 20
6838.1302839466
 30
0.0
 11
5427.064442939
 21
6791.5176771599
 31
0.0
  0
LINE
  5
2D6
330
1F
100
AcDbEntity
  8
0
  6
Continuous
 62
     7
370
    25
100
AcDbLine
 10
5427.064442939
 20
6774.6204546357
 30
0.0
 11
5427.064442939
 21
6746.8190658978
 31
0.0
  0
LINE
  5
2D7
330
1F
100
AcDbEntity
  8
0
  6
Continuous
 62
     7
370
    25
100
AcDbLine
 10
5430.564442939
 20
6893.2185075774
 30
0.0
 11
5523.064442939
 21
6893.2185075774
 31
0.0
  0
SPLINE
  5
2D8
330
1F
100
AcDbEntity
  8
0
  6
Continuous
 62
     7
370
    25
100
AcDbSpline
210
0.0
220
0.0
230
1.0
 70
     8
 71
     3
 72
    12
 73
     8
 74
     0
 42
0.00000001
 43
0.00000001
 40
0.0
 40
0.0
 40
0.0
 40
0.0
 40
0.0436622706527238
 40
0.2792060841689577
 40
0.5222444008843699
 40
0.7809030952067191
 40
1.0
 40
1.0
 40
1.0
 40
1.0
 10
5532.67096849602
 20
6894.535903122065
 30
0.0
 10
5532.645214746867
 20
6894.546272415301
 30
0.0
 10
5532.480527859398
 20
6894.612580688246
 30
0.0
 10
5531.242720801514
 20
6894.315842330923
 30
0.0
 10
5529.019980612664
 20
6893.825522396524
 30
0.0
 10
5526.136053241959
 20
6893.317938877492
 30
0.0
 10
5524.030185770263
 20
6893.249769702428
 30
0.0
 10
5523.064442938978
 20
6893.218507577428
 30
0.0
  0
LINE
  5
2D9
330
1F
100
AcDbEntity
  8
0
  6
Continuous
 62
     7
370
    25
100
AcDbLine
 10
5533.064442939
 20
6851.5690658978
 30
0.0
 11
5533.064442939
 21
6894.5690658978
 31
0.0
  0
LINE
  5
2DA
330
1F
100
AcDbEntity
  8
0
  6
Continuous
 62
     7
370
    25
100
AcDbLine
 10
5523.064442939
 20
6993.0690658978
 30
0.0
 11
5430.564442939
 21
6993.0690658978
 31
0.0
  0
LINE
  5
2DB
330
1F
100
AcDbEntity
  8
0
  6
Continuous
 62
     7
370
    25
100
AcDbLine
 10
5523.064442939
 20
6893.2185075774
 30
0.0
 11
5523.064442939
 21
6993.0690658978
 31
0.0
  0
LINE
  5
2DC
330
1F
100
AcDbEntity
  8
0
  6
Continuous
 62
     7
370
    25
100
AcDbLine
 10
5430.564442939
 20
6993.0690658978
 30
0.0
 11
5430.564442939
 21
6893.3252285323
 31
0.0
  0
LINE
  5
2DD
330
1F
100
AcDbEntity
  8
0
  6
Continuous
 62
     7
370
    25
100
AcDbLine
 10
5430.564442939
 20
7013.0690658978
 30
0.0
 11
5523.064442939
 21
7013.0690658978
 31
0.0
  0
LINE
  5
2DE
330
1F
100
AcDbEntity
  8
0
  6
Continuous
 62
     7
370
    25
100
AcDbLine
 10
5523.064442939
 20
6993.0690658978
 30
0.0
 11
5523.064442939
 21
7013.0690658978
 31
0.0
  0
LINE
  5
2DF
330
1F
100
AcDbEntity
  8
0
  6
Continuous
 62
     7
370
    25
100
AcDbLine
 10
5430.564442939
 20
6993.0690658978
 30
0.0
 11
5430.564442939
 21
7013.0690658978
 31
0.0
  0
LINE
  5
2E0
330
1F
100
AcDbEntity
  8
0
  6
Continuous
 62
     7
370
    25
100
AcDbLine
 10
5533.064442939
 20
6993.0690658978
 30
0.0
 11
5523.064442939
 21
6993.0690658978
 31
0.0
  0
LINE
  5
2E1
330
1F
100
AcDbEntity
  8
0
  6
Continuous
 62
     7
370
    25
100
AcDbLine
 10
5533.064442939
 20
6993.0690658978
 30
0.0
 11
5533.064442939
 21
6894.5690658978
 31
0.0
  0
ARC
  5
2E2
330
1F
100
AcDbEntity
  8
0
  6
Continuous
 62
     7
370
    25
100
AcDbCircle
 10
5523.064442939
 20
7003.0690658978
 30
0.0
 40
10.0
100
AcDbArc
 50
0.0
 51
90.0
  0
LINE
  5
2E3
330
1F
100
AcDbEntity
  8
0
  6
Continuous
 62
     7
370
    25
100
AcDbLine
 10
5533.064442939
 20
7003.0690658978
 30
0.0
 11
5533.064442939
 21
6993.0690658978
 31
0.0
  0
LINE
  5
2E4
330
1F
100
AcDbEntity
  8
0
  6
Continuous
 62
     7
370
    25
100
AcDbLine
 10
5533.064442939
 20
6851.5690658978
 30
0.0
 11
5533.064442939
 21
6770.3190658978
 31
0.0
  0
LINE
  5
2E5
330
1F
100
AcDbEntity
  8
0
  6
Continuous
 62
     7
370
    25
100
AcDbLine
 10
5430.564442939
 20
6760.3190658978
 30
0.0
 11
5430.564442939
 21
6851.5690658978
 31
0.0
  0
LINE
  5
2E6
330
1F
100
AcDbEntity
  8
0
  6
Continuous
 62
     7
370
    25
100
AcDbLine
 10
5538.064442939
 20
6905.1821473445
 30
0.0
 11
5533.064442939
 21
6905.1821473445
 31
0.0
  0
LINE
  5
2E7
330
1F
100
AcDbEntity
  8
0
  6
Continuous
 62
     7
370
    25
100
AcDbLine
 10
5548.064442939
 20
6903.0690622842
 30
0.0
 11
5548.064442939
 21
6843.0690658978
 31
0.0
  0
LINE
  5
2E8
330
1F
100
AcDbEntity
  8
0
  6
Continuous
 62
     7
370
    25
100
AcDbLine
 10
5538.064442939
 20
7003.0690658978
 30
0.0
 11
5533.064442939
 21
7003.0690658978
 31
0.0
  0
LINE
  5
2E9
330
1F
100
AcDbEntity
  8
0
  6
Continuous
 62
     7
370
    25
100
AcDbLine
 10
5538.064442939
 20
7003.0690658978
 30
0.0
 11
5538.064442939
 21
6905.1821473445
 31
0.0
  0
LINE
  5
2EA
330
1F
100
AcDbEntity
  8
0
  6
Continuous
 62
     7
370
    25
100
AcDbLine
 10
5412.064442939
 20
6738.5690658978
 30
0.0
 11
5412.064442939
 21
6827.5690658978
 31
0.0
  0
LINE
  5
2EB
330
1F
100
AcDbEntity
  8
0
  6
Continuous
 62
     7
370
    25
100
AcDbLine
 10
5420.9793824402
 20
6753.0690658978
 30
0.0
 11
5420.9793824402
 21
6813.0690658978
 31
0.0
  0
LINE
  5
2EC
330
1F
100
AcDbEntity
  8
0
  6
Continuous
 62
     7
370
    25
100
AcDbLine
 10
5421.4313514882
 20
6812.0690658978
 30
0.0
 11
5421.4313514882
 21
6754.0690658978
 31
0.0
  0
LINE
  5
2ED
330
1F
100
AcDbEntity
  8
0
  6
Continuous
 62
     7
370
    25
100
AcDbLine
 10
5351.064442939
 20
6693.0690658978
 30
0.0
 11
5400.028909033
 21
6693.0690658978
 31
0.0
  0
LINE
  5
2EE
330
1F
100
AcDbEntity
  8
0
  6
Continuous
 62
     7
370
    25
100
AcDbLine
 10
5400.028909033
 20
6663.0690658978
 30
0.0
 11
5400.028909033
 21
6693.0690658978
 31
0.0
  0
LINE
  5
2EF
330
1F
100
AcDbEntity
  8
0
  6
Continuous
 62
     7
370
    25
100
AcDbLine
 10
5400.028909033
 20
6663.0690658978
 30
0.0
 11
5351.064442939
 21
6663.0690658978
 31
0.0
  0
LINE
  5
2F0
330
1F
100
AcDbEntity
  8
0
  6
Continuous
 62
     7
370
    25
100
AcDbLine
 10
5351.064442939
 20
6663.0690658978
 30
0.0
 11
5351.064442939
 21
6693.0690658978
 31
0.0
  0
LINE
  5
2F1
330
1F
100
AcDbEntity
  8
0
  6
Continuous
 62
     7
370
    25
100
AcDbLine
 10
5400.028909033
 20
7033.0690658978
 30
0.0
 11
5351.064442939
 21
7033.0690658978
 31
0.0
  0
LINE
  5
2F2
330
1F
100
AcDbEntity
  8
0
  6
Continuous
 62
     7
370
    25
100
AcDbLine
 10
5400.028909033
 20
6693.0690658978
 30
0.0
 11
5400.028909033
 21
7033.0690658978
 31
0.0
  0
LINE
  5
2F3
330
1F
100
AcDbEntity
  8
0
  6
Continuous
 62
     7
370
    25
100
AcDbLine
 10
5351.064442939
 20
6693.0690658978
 30
0.0
 11
5351.064442939
 21
7033.0690658978
 31
0.0
  0
LINE
  5
2F4
330
1F
100
AcDbEntity
  8
0
  6
Continuous
 62
     7
370
    25
100
AcDbLine
 10
5400.028909033
 20
6693.0690658978
 30
0.0
 11
5401.796675986
 21
6693.0690658978
 31
0.0
  0
LINE
  5
2F5
330
1F
100
AcDbEntity
  8
0
  6
Continuous
 62
     7
370
    25
100
AcDbLine
 10
5401.796675986
 20
6693.0690658978
 30
0.0
 11
5401.796675986
 21
6663.8012989448
 31
0.0
  0
ARC
  5
2F6
330
1F
100
AcDbEntity
  8
0
  6
Continuous
 62
     7
370
    25
100
AcDbCircle
 10
5400.028909033
 20
6665.5690658978
 30
0.0
 40
2.5
100
AcDbArc
 50
270.0
 51
315.0
  0
LINE
  5
2F7
330
1F
100
AcDbEntity
  8
0
  6
Continuous
 62
     7
370
    25
100
AcDbLine
 10
5351.064442939
 20
7063.0690658978
 30
0.0
 11
5400.028909033
 21
7063.0690658978
 31
0.0
  0
LINE
  5
2F8
330
1F
100
AcDbEntity
  8
0
  6
Continuous
 62
     7
370
    25
100
AcDbLine
 10
5400.028909033
 20
7033.0690658978
 30
0.0
 11
5400.028909033
 21
7063.0690658978
 31
0.0
  0
LINE
  5
2F9
330
1F
100
AcDbEntity
  8
0
  6
Continuous
 62
     7
370
    25
100
AcDbLine
 10
5351.064442939
 20
7033.0690658978
 30
0.0
 11
5351.064442939
 21
7063.0690658978
 31
0.0
  0
LINE
  5
2FA
330
1F
100
AcDbEntity
  8
0
  6
Continuous
 62
     7
370
    25
100
AcDbLine
 10
5400.028909033
 20
7033.0690658978
 30
0.0
 11
5401.796675986
 21
7033.0690658978
 31
0.0
  0
LINE
  5
2FB
330
1F
100
AcDbEntity
  8
0
  6
Continuous
 62
     7
370
    25
100
AcDbLine
 10
5401.796675986
 20
7033.0690658978
 30
0.0
 11
5401.796675986
 21
6693.0690658978
 31
0.0
  0
ARC
  5
2FC
330
1F
100
AcDbEntity
  8
0
  6
Continuous
 62
     7
370
    25
100
AcDbCircle
 10
5400.028909033
 20
7060.5690658978
 30
0.0
 40
2.499999999999136
100
AcDbArc
 50
45.0
 51
90.0
  0
LINE
  5
2FD
330
1F
100
AcDbEntity
  8
0
  6
Continuous
 62
     7
370
    25
100
AcDbLine
 10
5401.796675986
 20
7062.3368328508
 30
0.0
 11
5401.796675986
 21
7033.0690658978
 31
0.0
  0
LINE
  5
2FE
330
1F
100
AcDbEntity
  8
0
  6
Continuous
 62
     7
370
    25
100
AcDbLine
 10
5410.3322098919
 20
7033.0690658978
 30
0.0
 11
5401.796675986
 21
7033.0690658978
 31
0.0
  0
LINE
  5
2FF
330
1F
100
AcDbEntity
  8
0
  6
Continuous
 62
     7
370
    25
100
AcDbLine
 10
5410.3322098919
 20
6693.0690658978
 30
0.0
 11
5410.3322098919
 21
7033.0690658978
 31
0.0
  0
LINE
  5
300
330
1F
100
AcDbEntity
  8
0
  6
Continuous
 62
     7
370
    25
100
AcDbLine
 10
5410.3322098919
 20
6693.0690658978
 30
0.0
 11
5401.796675986
 21
6693.0690658978
 31
0.0
  0
LINE
  5
301
330
1F
100
AcDbEntity
  8
0
  6
Continuous
 62
     7
370
    25
100
AcDbLine
 10
5410.3322098919
 20
6672.3368328508
 30
0.0
 11
5410.3322098919
 21
6693.0690658978
 31
0.0
  0
LINE
  5
302
330
1F
100
AcDbEntity
  8
0
  6
Continuous
 62
     7
370
    25
100
AcDbLine
 10
5401.796675986
 20
6663.8012989448
 30
0.0
 11
5410.3322098919
 21
6672.3368328508
 31
0.0
  0
LINE
  5
303
330
1F
100
AcDbEntity
  8
0
  6
Continuous
 62
     7
370
    25
100
AcDbLine
 10
5410.3322098919
 20
7053.8012989448
 30
0.0
 11
5401.796675986
 21
7062.3368328508
 31
0.0
  0
LINE
  5
304
330
1F
100
AcDbEntity
  8
0
  6
Continuous
 62
     7
370
    25
100
AcDbLine
 10
5410.3322098919
 20
7033.0690658978
 30
0.0
 11
5410.3322098919
 21
7053.8012989448
 31
0.0
  0
LINE
  5
305
330
1F
100
AcDbEntity
  8
0
  6
Continuous
 62
     7
370
    25
100
AcDbLine
 10
5411.064442939
 20
6693.0690658978
 30
0.0
 11
5411.064442939
 21
6674.1045998037
 31
0.0
  0
ARC
  5
306
330
1F
100
AcDbEntity
  8
0
  6
Continuous
 62
     7
370
    25
100
AcDbCircle
 10
5408.564442939
 20
6674.1045998037
 30
0.0
 40
2.500000000001065
100
AcDbArc
 50
315.0
 51
0.0
  0
LINE
  5
307
330
1F
100
AcDbEntity
  8
0
  6
Continuous
 62
     7
370
    25
100
AcDbLine
 10
5410.3322098919
 20
6693.0690658978
 30
0.0
 11
5411.064442939
 21
6693.0690658978
 31
0.0
  0
LINE
  5
308
330
1F
100
AcDbEntity
  8
0
  6
Continuous
 62
     7
370
    25
100
AcDbLine
 10
5410.3322098919
 20
7033.0690658978
 30
0.0
 11
5411.064442939
 21
7033.0690658978
 31
0.0
  0
LINE
  5
309
330
1F
100
AcDbEntity
  8
0
  6
Continuous
 62
     7
370
    25
100
AcDbLine
 10
5411.064442939
 20
7033.0690658978
 30
0.0
 11
5411.064442939
 21
6693.0690658978
 31
0.0
  0
ARC
  5
30A
330
1F
100
AcDbEntity
  8
0
  6
Continuous
 62
     7
370
    25
100
AcDbCircle
 10
5408.564442939
 20
7052.0335319919
 30
0.0
 40
2.499999999999136
100
AcDbArc
 50
0.0
 51
45.0
  0
LINE
  5
30B
330
1F
100
AcDbEntity
  8
0
  6
Continuous
 62
     7
370
    25
100
AcDbLine
 10
5411.064442939
 20
7052.0335319919
 30
0.0
 11
5411.064442939
 21
7033.0690658978
 31
0.0
  0
ARC
  5
30C
330
1F
100
AcDbEntity
  8
0
  6
Continuous
 62
     7
370
    25
100
AcDbCircle
 10
5169.564442939
 20
6693.0690658978
 30
0.0
 40
42.42640687119235
100
AcDbArc
 50
276.7681013687
 51
287.1352215075
  0
SPLINE
  5
30D
330
1F
100
AcDbEntity
  8
0
  6
Continuous
 62
     7
370
    25
100
AcDbSpline
210
0.0
220
0.0
230
1.0
 70
     8
 71
     3
 72
    12
 73
     8
 74
     0
 42
0.00000001
 43
0.00000001
 40
0.0
 40
0.0
 40
0.0
 40
0.0
 40
0.2135413414436613
 40
0.4271558781179529
 40
0.6391534182107208
 40
0.8504463930752558
 40
1.0
 40
1.0
 40
1.0
 40
1.0
 10
5172.064442938975
 20
6650.938317031939
 30
0.0
 10
5172.091536678166
 20
6650.908479357491
 30
0.0
 10
5172.145733443425
 20
6650.848793781181
 30
0.0
 10
5172.571293647638
 20
6650.810828185944
 30
0.0
 10
5173.197293658051
 20
6650.818176976968
 30
0.0
 10
5173.900492115484
 20
6650.8649974255
 30
0.0
 10
5174.369897085214
 20
6650.916833474833
 30
0.0
 10
5174.564442938976
 20
6650.938317031939
 30
0.0
  0
LINE
  5
30E
330
1F
100
AcDbEntity
  8
0
  6
Continuous
 62
     7
370
    25
100
AcDbLine
 10
5172.064442939
 20
6652.5258790473
 30
0.0
 11
5172.064442939
 21
6650.9383170319
 31
0.0
  0
ARC
  5
30F
330
1F
100
AcDbEntity
  8
0
  6
Continuous
 62
     7
370
    25
100
AcDbCircle
 10
5169.564442939
 20
6693.0690658978
 30
0.0
 40
40.62019202317926
100
AcDbArc
 50
266.4714585265
 51
273.5285414735
  0
LINE
  5
310
330
1F
100
AcDbEntity
  8
0
  6
Continuous
 62
     7
370
    25
100
AcDbLine
 10
5167.064442939
 20
6652.5258790473
 30
0.0
 11
5167.064442939
 21
6650.9383170319
 31
0.0
  0
SPLINE
  5
311
330
1F
100
AcDbEntity
  8
0
  6
Continuous
 62
     7
370
    25
100
AcDbSpline
210
0.0
220
0.0
230
1.0
 70
     8
 71
     3
 72
    12
 73
     8
 74
     0
 42
0.00000001
 43
0.00000001
 40
0.0
 40
0.0
 40
0.0
 40
0.0
 40
0.2135413414436654
 40
0.4271558781179461
 40
0.6391534182107165
 40
0.8504463930752589
 40
0.9999999999999999
 40
0.9999999999999999
 40
0.9999999999999999
 40
0.9999999999999999
 10
5164.564442938976
 20
6650.938317031939
 30
0.0
 10
5164.84314281626
 20
6650.908479357491
 30
0.0
 10
5165.40063810035
 20
6650.848793781182
 30
0.0
 10
5166.147188878167
 20
6650.810828185944
 30
0.0
 10
5166.711052633513
 20
6650.818176976968
 30
0.0
 10
5167.018619766
 20
6650.8649974255
 30
0.0
 10
5167.051016179051
 20
6650.916833474833
 30
0.0
 10
5167.064442938975
 20
6650.938317031939
 30
0.0
  0
ARC
  5
312
330
1F
100
AcDbEntity
  8
0
  6
Continuous
 62
     7
370
    25
100
AcDbCircle
 10
5169.564442939
 20
6693.0690658978
 30
0.0
 40
42.4264068711926
100
AcDbArc
 50
252.8647784925
 51
263.2318986313
  0
LINE
  5
313
330
1F
100
AcDbEntity
  8
0
  6
Continuous
 62
     7
370
    25
100
AcDbLine
 10
5157.064442939
 20
6652.5258790473
 30
0.0
 11
5157.064442939
 21
6652.4488738746
 31
0.0
  0
LINE
  5
314
330
1F
100
AcDbEntity
  8
0
  6
Continuous
 62
     7
370
    25
100
AcDbLine
 10
5282.064442939
 20
6652.5258790473
 30
0.0
 11
5282.064442939
 21
6652.4488738746
 31
0.0
  0
ARC
  5
315
330
1F
100
AcDbEntity
  8
0
  6
Continuous
 62
     7
370
    25
100
AcDbCircle
 10
5269.564442939
 20
6693.0690658978
 30
0.0
 40
42.42640687119235
100
AcDbArc
 50
276.7681013687
 51
287.1352215075
  0
SPLINE
  5
316
330
1F
100
AcDbEntity
  8
0
  6
Continuous
 62
     7
370
    25
100
AcDbSpline
210
0.0
220
0.0
230
1.0
 70
     8
 71
     3
 72
    12
 73
     8
 74
     0
 42
0.00000001
 43
0.00000001
 40
0.0
 40
0.0
 40
0.0
 40
0.0
 40
0.2135413414436578
 40
0.4271558781179474
 40
0.6391534182107097
 40
0.8504463930752572
 40
1.0
 40
1.0
 40
1.0
 40
1.0
 10
5272.064442938976
 20
6650.938317031939
 30
0.0
 10
5272.091536678166
 20
6650.908479357491
 30
0.0
 10
5272.145733443426
 20
6650.848793781181
 30
0.0
 10
5272.571293647638
 20
6650.810828185944
 30
0.0
 10
5273.197293658051
 20
6650.818176976968
 30
0.0
 10
5273.900492115484
 20
6650.8649974255
 30
0.0
 10
5274.369897085213
 20
6650.916833474833
 30
0.0
 10
5274.564442938976
 20
6650.938317031939
 30
0.0
  0
LINE
  5
317
330
1F
100
AcDbEntity
  8
0
  6
Continuous
 62
     7
370
    25
100
AcDbLine
 10
5272.064442939
 20
6652.5258790473
 30
0.0
 11
5272.064442939
 21
6650.9383170319
 31
0.0
  0
ARC
  5
318
330
1F
100
AcDbEntity
  8
0
  6
Continuous
 62
     7
370
    25
100
AcDbCircle
 10
5269.564442939
 20
6693.0690658978
 30
0.0
 40
40.62019202317926
100
AcDbArc
 50
266.4714585265
 51
273.5285414735
  0
LINE
  5
319
330
1F
100
AcDbEntity
  8
0
  6
Continuous
 62
     7
370
    25
100
AcDbLine
 10
5267.064442939
 20
6652.5258790473
 30
0.0
 11
5267.064442939
 21
6650.9383170319
 31
0.0
  0
SPLINE
  5
31A
330
1F
100
AcDbEntity
  8
0
  6
Continuous
 62
     7
370
    25
100
AcDbSpline
210
0.0
220
0.0
230
1.0
 70
     8
 71
     3
 72
    12
 73
     8
 74
     0
 42
0.00000001
 43
0.00000001
 40
0.0
 40
0.0
 40
0.0
 40
0.0
 40
0.2135413414436578
 40
0.4271558781179474
 40
0.6391534182107097
 40
0.8504463930752572
 40
1.0
 40
1.0
 40
1.0
 40
1.0
 10
5264.564442938976
 20
6650.938317031939
 30
0.0
 10
5264.843142816261
 20
6650.908479357491
 30
0.0
 10
5265.40063810035
 20
6650.848793781181
 30
0.0
 10
5266.147188878166
 20
6650.810828185944
 30
0.0
 10
5266.711052633513
 20
6650.818176976968
 30
0.0
 10
5267.018619766
 20
6650.8649974255
 30
0.0
 10
5267.051016179052
 20
6650.916833474833
 30
0.0
 10
5267.064442938976
 20
6650.938317031939
 30
0.0
  0
ARC
  5
31B
330
1F
100
AcDbEntity
  8
0
  6
Continuous
 62
     7
370
    25
100
AcDbCircle
 10
5269.564442939
 20
6693.0690658978
 30
0.0
 40
42.42640687119235
100
AcDbArc
 50
252.8647784925
 51
263.2318986313
  0
LINE
  5
31C
330
1F
100
AcDbEntity
  8
0
  6
Continuous
 62
     7
370
    25
100
AcDbLine
 10
5257.064442939
 20
6652.5258790473
 30
0.0
 11
5257.064442939
 21
6652.4488738746
 31
0.0
  0
LINE
  5
31D
330
1F
100
AcDbEntity
  8
0
  6
Continuous
 62
     7
370
    25
100
AcDbLine
 10
5224.203860797
 20
6662.979189816
 30
0.0
 11
5228.101669647
 21
6663.0690658978
 31
0.0
  0
LINE
  5
31E
330
1F
100
AcDbEntity
  8
0
  6
Continuous
 62
     7
370
    25
100
AcDbLine
 10
5224.203860797
 20
6662.979189816
 30
0.0
 11
5224.9584771816
 21
6663.0690658978
 31
0.0
  0
SPLINE
  5
31F
330
1F
100
AcDbEntity
  8
0
  6
Continuous
 62
     7
370
    25
100
AcDbSpline
210
0.0
220
0.0
230
1.0
 70
     8
 71
     3
 72
    10
 73
     6
 74
     0
 42
0.00000001
 43
0.00000001
 40
0.0
 40
0.0
 40
0.0
 40
0.0
 40
0.3878044432178404
 40
0.7715493579973128
 40
1.0
 40
1.0
 40
1.0
 40
1.0
 10
5224.203860796961
 20
6656.729189816047
 30
0.0
 10
5228.147018678591
 20
6656.819051692604
 30
0.0
 10
5235.992057551302
 20
6656.997834773557
 30
0.0
 10
5245.074640868655
 20
6657.220841076154
 30
0.0
 10
5248.335213889041
 20
6657.360146818191
 30
0.0
 10
5249.551949279477
 20
6657.412131001758
 30
0.0
  0
SPLINE
  5
320
330
1F
100
AcDbEntity
  8
0
  6
Continuous
 62
     7
370
    25
100
AcDbSpline
210
0.0
220
0.0
230
1.0
 70
     8
 71
     3
 72
     9
 73
     5
 74
     0
 42
0.00000001
 43
0.00000001
 40
0.0
 40
0.0
 40
0.0
 40
0.0
 40
0.7745197692246985
 40
1.0
 40
1.0
 40
1.0
 40
1.0
 10
5234.664111809521
 20
6655.381200592242
 30
0.0
 10
5239.490894782321
 20
6655.485490822476
 30
0.0
 10
5245.7228634997
 20
6655.620142298628
 30
0.0
 10
5249.205453121113
 20
6655.754784797792
 30
0.0
 10
5249.990708232644
 20
6655.785144019575
 30
0.0
  0
SPLINE
  5
321
330
1F
100
AcDbEntity
  8
0
  6
Continuous
 62
     7
370
    25
100
AcDbSpline
210
0.0
220
0.0
230
1.0
 70
     8
 71
     3
 72
    10
 73
     6
 74
     0
 42
0.00000001
 43
0.00000001
 40
0.0
 40
0.0
 40
0.0
 40
0.0
 40
0.3146003436808655
 40
0.6568370913737548
 40
1.0
 40
1.0
 40
1.0
 40
1.0
 10
5234.664111809518
 20
6655.381200592242
 30
0.0
 10
5233.576363407005
 20
6655.586624410972
 30
0.0
 10
5231.305312178984
 20
6656.015517723723
 30
0.0
 10
5227.815063365626
 20
6656.482883345373
 30
0.0
 10
5225.408678879337
 20
6656.647013730925
 30
0.0
 10
5224.203860796961
 20
6656.729189816047
 30
0.0
  0
SPLINE
  5
322
330
1F
100
AcDbEntity
  8
0
  6
Continuous
 62
     7
370
    25
100
AcDbSpline
210
0.0
220
0.0
230
1.0
 70
     8
 71
     3
 72
    10
 73
     6
 74
     0
 42
0.00000001
 43
0.00000001
 40
0.0
 40
0.0
 40
0.0
 40
0.0
 40
0.3682953252718759
 40
0.7327353431257867
 40
1.0
 40
1.0
 40
1.0
 40
1.0
 10
5224.20386079696
 20
6661.729189816047
 30
0.0
 10
5228.153581508883
 20
6661.819043752766
 30
0.0
 10
5236.011677342613
 20
6661.997811037158
 30
0.0
 10
5245.486840001882
 20
6662.232737409887
 30
0.0
 10
5248.990318855495
 20
6662.384144299929
 30
0.0
 10
5250.472587566075
 20
6662.448202256335
 30
0.0
  0
SPLINE
  5
323
330
1F
100
AcDbEntity
  8
0
  6
Continuous
 62
     7
370
    25
100
AcDbSpline
210
0.0
220
0.0
230
1.0
 70
     8
 71
     3
 72
     9
 73
     5
 74
     0
 42
0.00000001
 43
0.00000001
 40
0.0
 40
0.0
 40
0.0
 40
0.0
 40
0.8018352873187633
 40
1.0
 40
1.0
 40
1.0
 40
1.0
 10
5234.664111809521
 20
6660.381200592242
 30
0.0
 10
5239.510283778328
 20
6660.485490885783
 30
0.0
 10
5245.554133488424
 20
6660.615555370585
 30
0.0
 10
5248.942265126994
 20
6660.745611184213
 30
0.0
 10
5249.613673259678
 20
6660.771383657153
 30
0.0
  0
SPLINE
  5
324
330
1F
100
AcDbEntity
  8
0
  6
Continuous
 62
     7
370
    25
100
AcDbSpline
210
0.0
220
0.0
230
1.0
 70
     8
 71
     3
 72
    10
 73
     6
 74
     0
 42
0.00000001
 43
0.00000001
 40
0.0
 40
0.0
 40
0.0
 40
0.0
 40
0.31460034368085
 40
0.6568370913737183
 40
1.0
 40
1.0
 40
1.0
 40
1.0
 10
5234.664111809518
 20
6660.381200592242
 30
0.0
 10
5233.576363407005
 20
6660.586624410972
 30
0.0
 10
5231.305312178984
 20
6661.015517723722
 30
0.0
 10
5227.815063365626
 20
6661.482883345373
 30
0.0
 10
5225.408678879337
 20
6661.647013730926
 30
0.0
 10
5224.20386079696
 20
6661.729189816047
 30
0.0
  0
SPLINE
  5
325
330
1F
100
AcDbEntity
  8
0
  6
Continuous
 62
     7
370
    25
100
AcDbSpline
210
0.0
220
0.0
230
1.0
 70
     8
 71
     3
 72
     9
 73
     5
 74
     0
 42
0.00000001
 43
0.00000001
 40
0.0
 40
0.0
 40
0.0
 40
0.0
 40
0.7930892673153883
 40
0.9999999999999999
 40
0.9999999999999999
 40
0.9999999999999999
 40
0.9999999999999999
 10
5234.664111809521
 20
6659.756200578587
 30
0.0
 10
5239.504075712043
 20
6659.860490851857
 30
0.0
 10
5245.60674801135
 20
6659.991989634616
 30
0.0
 10
5249.024415544258
 20
6660.123479650578
 30
0.0
 10
5249.731567637565
 20
6660.150686346121
 30
0.0
  0
SPLINE
  5
326
330
1F
100
AcDbEntity
  8
0
  6
Continuous
 62
     7
370
    25
100
AcDbSpline
210
0.0
220
0.0
230
1.0
 70
     8
 71
     3
 72
    10
 73
     6
 74
     0
 42
0.00000001
 43
0.00000001
 40
0.0
 40
0.0
 40
0.0
 40
0.0
 40
0.387525867820261
 40
0.7709951233233301
 40
1.0
 40
1.0
 40
1.0
 40
1.0
 10
5224.203860796961
 20
6657.979189816047
 30
0.0
 10
5228.147115974219
 20
6658.069051574894
 30
0.0
 10
5235.992348419695
 20
6658.247834421658
 30
0.0
 10
5245.08021334986
 20
6658.471002542933
 30
0.0
 10
5248.344079230271
 20
6658.610472509679
 30
0.0
 10
5249.564442938976
 20
6658.662620512111
 30
0.0
  0
SPLINE
  5
327
330
1F
100
AcDbEntity
  8
0
  6
Continuous
 62
     7
370
    25
100
AcDbSpline
210
0.0
220
0.0
230
1.0
 70
     8
 71
     3
 72
    10
 73
     6
 74
     0
 42
0.00000001
 43
0.00000001
 40
0.0
 40
0.0
 40
0.0
 40
0.0
 40
0.3127691959376711
 40
0.6224823689594379
 40
1.0
 40
1.0
 40
1.0
 40
1.0
 10
5224.203860796961
 20
6657.979189816047
 30
0.0
 10
5225.304462670189
 20
6658.099495627999
 30
0.0
 10
5227.494912593732
 20
6658.338931761084
 30
0.0
 10
5230.987630105376
 20
6658.926205377576
 30
0.0
 10
5233.360576985935
 20
6659.461917148124
 30
0.0
 10
5234.664111809518
 20
6659.756200578587
 30
0.0
  0
SPLINE
  5
328
330
1F
100
AcDbEntity
  8
0
  6
Continuous
 62
     7
370
    25
100
AcDbSpline
210
0.0
220
0.0
230
1.0
 70
     8
 71
     3
 72
    10
 73
     6
 74
     0
 42
0.00000001
 43
0.00000001
 40
0.0
 40
0.0
 40
0.0
 40
0.0
 40
0.333208437970158
 40
0.6664168759403318
 40
1.0
 40
1.0
 40
1.0
 40
1.0
 10
5180.06444293898
 20
6653.819065897823
 30
0.0
 10
5180.667347652872
 20
6653.923232872972
 30
0.0
 10
5181.873157080656
 20
6654.131566823272
 30
0.0
 10
5190.873509473926
 20
6654.444179327576
 30
0.0
 10
5199.93265568679
 20
6654.652641531497
 30
0.0
 10
5204.464774068434
 20
6654.756931203401
 30
0.0
  0
SPLINE
  5
329
330
1F
100
AcDbEntity
  8
0
  6
Continuous
 62
     7
370
    25
100
AcDbSpline
210
0.0
220
0.0
230
1.0
 70
     8
 71
     3
 72
    11
 73
     7
 74
     0
 42
0.00000001
 43
0.00000001
 40
0.0
 40
0.0
 40
0.0
 40
0.0
 40
0.2538574209925238
 40
0.5321385474232732
 40
0.7648384406791794
 40
1.0
 40
1.0
 40
1.0
 40
1.0
 10
5183.016583908487
 20
6655.408992860432
 30
0.0
 10
5183.534225856612
 20
6655.50393010888
 30
0.0
 10
5184.619312253868
 20
6655.702938549477
 30
0.0
 10
5192.507218827144
 20
6655.990621948691
 30
0.0
 10
5203.009020674194
 20
6656.265361182118
 30
0.0
 10
5210.939115473833
 20
6656.444101555516
 30
0.0
 10
5214.925025080993
 20
6656.533941965941
 30
0.0
  0
SPLINE
  5
32A
330
1F
100
AcDbEntity
  8
0
  6
Continuous
 62
     7
370
    25
100
AcDbSpline
210
0.0
220
0.0
230
1.0
 70
     8
 71
     3
 72
    10
 73
     6
 74
     0
 42
0.00000001
 43
0.00000001
 40
0.0
 40
0.0
 40
0.0
 40
0.0
 40
0.3127691959375889
 40
0.6224823689593727
 40
1.0
 40
1.0
 40
1.0
 40
1.0
 10
5214.925025080993
 20
6656.533941965941
 30
0.0
 10
5213.824423207765
 20
6656.41363615399
 30
0.0
 10
5211.633973284223
 20
6656.174200020905
 30
0.0
 10
5208.141255772579
 20
6655.586926404414
 30
0.0
 10
5205.76830889202
 20
6655.051214633865
 30
0.0
 10
5204.464774068438
 20
6654.756931203403
 30
0.0
  0
SPLINE
  5
32B
330
1F
100
AcDbEntity
  8
0
  6
Continuous
 62
     7
370
    25
100
AcDbSpline
210
0.0
220
0.0
230
1.0
 70
     8
 71
     3
 72
    11
 73
     7
 74
     0
 42
0.00000001
 43
0.00000001
 40
0.0
 40
0.0
 40
0.0
 40
0.0
 40
0.2716190515625609
 40
0.5432758052509715
 40
0.7704363690891722
 40
1.0
 40
1.0
 40
1.0
 40
1.0
 10
5182.771161018772
 20
6651.631609261587
 30
0.0
 10
5183.322310086725
 20
6651.735661781474
 30
0.0
 10
5184.424684724968
 20
6651.943781264273
 30
0.0
 10
5192.494806289554
 20
6652.240618711997
 30
0.0
 10
5203.011925317989
 20
6652.515361939533
 30
0.0
 10
5210.940087078678
 20
6652.694101808871
 30
0.0
 10
5214.925025080993
 20
6652.783941965941
 30
0.0
  0
SPLINE
  5
32C
330
1F
100
AcDbEntity
  8
0
  6
Continuous
 62
     7
370
    25
100
AcDbSpline
210
0.0
220
0.0
230
1.0
 70
     8
 71
     3
 72
    11
 73
     7
 74
     0
 42
0.00000001
 43
0.00000001
 40
0.0
 40
0.0
 40
0.0
 40
0.0
 40
0.0285481579802665
 40
0.3522441088228941
 40
0.6759400596655382
 40
1.0
 40
1.0
 40
1.0
 40
1.0
 10
5180.329622084615
 20
6653.166505145932
 30
0.0
 10
5180.234691307662
 20
6653.175692057421
 30
0.0
 10
5179.06337906568
 20
6653.28904562133
 30
0.0
 10
5182.545543516645
 20
6653.506566938837
 30
0.0
 10
5190.705192322485
 20
6653.819179281573
 30
0.0
 10
5199.876528955485
 20
6654.027641507055
 30
0.0
 10
5204.464774068434
 20
6654.131931189745
 30
0.0
  0
SPLINE
  5
32D
330
1F
100
AcDbEntity
  8
0
  6
Continuous
 62
     7
370
    25
100
AcDbSpline
210
0.0
220
0.0
230
1.0
 70
     8
 71
     3
 72
    10
 73
     6
 74
     0
 42
0.00000001
 43
0.00000001
 40
0.0
 40
0.0
 40
0.0
 40
0.0
 40
0.3146003436807199
 40
0.6568370913735128
 40
1.0
 40
1.0
 40
1.0
 40
1.0
 10
5204.464774068438
 20
6654.131931189747
 30
0.0
 10
5205.552522470949
 20
6653.926507371017
 30
0.0
 10
5207.823573698969
 20
6653.497614058267
 30
0.0
 10
5211.313822512326
 20
6653.030248436617
 30
0.0
 10
5213.720206998615
 20
6652.866118051063
 30
0.0
 10
5214.925025080992
 20
6652.783941965941
 30
0.0
  0
SPLINE
  5
32E
330
1F
100
AcDbEntity
  8
0
  6
Continuous
 62
     7
370
    25
100
AcDbSpline
210
0.0
220
0.0
230
1.0
 70
     8
 71
     3
 72
    11
 73
     7
 74
     0
 42
0.00000001
 43
0.00000001
 40
0.0
 40
0.0
 40
0.0
 40
0.0
 40
0.2716190515625609
 40
0.5432758052509693
 40
0.7704363690891707
 40
1.0
 40
1.0
 40
1.0
 40
1.0
 10
5182.771161018772
 20
6656.631609261587
 30
0.0
 10
5183.322310086725
 20
6656.735661781473
 30
0.0
 10
5184.424684724968
 20
6656.943781264273
 30
0.0
 10
5192.494806289554
 20
6657.240618711997
 30
0.0
 10
5203.011925317989
 20
6657.515361939533
 30
0.0
 10
5210.940087078678
 20
6657.694101808872
 30
0.0
 10
5214.925025080993
 20
6657.783941965941
 30
0.0
  0
SPLINE
  5
32F
330
1F
100
AcDbEntity
  8
0
  6
Continuous
 62
     7
370
    25
100
AcDbSpline
210
0.0
220
0.0
230
1.0
 70
     8
 71
     3
 72
    11
 73
     7
 74
     0
 42
0.00000001
 43
0.00000001
 40
0.0
 40
0.0
 40
0.0
 40
0.0
 40
0.0285481579802152
 40
0.3522441088228623
 40
0.6759400596655262
 40
1.0
 40
1.0
 40
1.0
 40
1.0
 10
5180.329622084611
 20
6658.166505145932
 30
0.0
 10
5180.234691307658
 20
6658.17569205742
 30
0.0
 10
5179.063379065676
 20
6658.28904562133
 30
0.0
 10
5182.545543516646
 20
6658.506566938836
 30
0.0
 10
5190.705192322484
 20
6658.819179281574
 30
0.0
 10
5199.876528955485
 20
6659.027641507056
 30
0.0
 10
5204.464774068434
 20
6659.131931189745
 30
0.0
  0
SPLINE
  5
330
330
1F
100
AcDbEntity
  8
0
  6
Continuous
 62
     7
370
    25
100
AcDbSpline
210
0.0
220
0.0
230
1.0
 70
     8
 71
     3
 72
    10
 73
     6
 74
     0
 42
0.00000001
 43
0.00000001
 40
0.0
 40
0.0
 40
0.0
 40
0.0
 40
0.3146003436807223
 40
0.6568370913735107
 40
1.0
 40
1.0
 40
1.0
 40
1.0
 10
5204.464774068438
 20
6659.131931189747
 30
0.0
 10
5205.552522470949
 20
6658.926507371018
 30
0.0
 10
5207.823573698969
 20
6658.497614058266
 30
0.0
 10
5211.313822512326
 20
6658.030248436617
 30
0.0
 10
5213.720206998615
 20
6657.866118051063
 30
0.0
 10
5214.925025080993
 20
6657.783941965942
 30
0.0
  0
SPLINE
  5
331
330
1F
100
AcDbEntity
  8
0
  6
Continuous
 62
     7
370
    25
100
AcDbSpline
210
0.0
220
0.0
230
1.0
 70
     8
 71
     3
 72
    10
 73
     6
 74
     0
 42
0.00000001
 43
0.00000001
 40
0.0
 40
0.0
 40
0.0
 40
0.0
 40
0.333208437970158
 40
0.6664168759403369
 40
1.0
 40
1.0
 40
1.0
 40
1.0
 10
5180.064442938977
 20
6658.819065897823
 30
0.0
 10
5180.667347652869
 20
6658.923232872972
 30
0.0
 10
5181.873157080656
 20
6659.131566823271
 30
0.0
 10
5190.873509473926
 20
6659.444179327577
 30
0.0
 10
5199.93265568679
 20
6659.652641531497
 30
0.0
 10
5204.464774068434
 20
6659.756931203401
 30
0.0
  0
SPLINE
  5
332
330
1F
100
AcDbEntity
  8
0
  6
Continuous
 62
     7
370
    25
100
AcDbSpline
210
0.0
220
0.0
230
1.0
 70
     8
 71
     3
 72
    11
 73
     7
 74
     0
 42
0.00000001
 43
0.00000001
 40
0.0
 40
0.0
 40
0.0
 40
0.0
 40
0.2538574209925594
 40
0.5321385474233035
 40
0.7648384406791929
 40
1.0
 40
1.0
 40
1.0
 40
1.0
 10
5183.016583908485
 20
6660.408992860431
 30
0.0
 10
5183.534225856611
 20
6660.50393010888
 30
0.0
 10
5184.619312253867
 20
6660.702938549477
 30
0.0
 10
5192.507218827143
 20
6660.990621948692
 30
0.0
 10
5203.009020674194
 20
6661.265361182119
 30
0.0
 10
5210.939115473833
 20
6661.444101555516
 30
0.0
 10
5214.925025080993
 20
6661.533941965941
 30
0.0
  0
SPLINE
  5
333
330
1F
100
AcDbEntity
  8
0
  6
Continuous
 62
     7
370
    25
100
AcDbSpline
210
0.0
220
0.0
230
1.0
 70
     8
 71
     3
 72
    10
 73
     6
 74
     0
 42
0.00000001
 43
0.00000001
 40
0.0
 40
0.0
 40
0.0
 40
0.0
 40
0.3127691959379296
 40
0.6224823689593676
 40
1.0
 40
1.0
 40
1.0
 40
1.0
 10
5214.925025080993
 20
6661.533941965942
 30
0.0
 10
5213.824423207763
 20
6661.41363615399
 30
0.0
 10
5211.633973284221
 20
6661.174200020905
 30
0.0
 10
5208.141255772578
 20
6660.586926404413
 30
0.0
 10
5205.768308892019
 20
6660.051214633864
 30
0.0
 10
5204.464774068438
 20
6659.756931203403
 30
0.0
  0
SPLINE
  5
334
330
1F
100
AcDbEntity
  8
0
  6
Continuous
 62
     7
370
    25
100
AcDbSpline
210
0.0
220
0.0
230
1.0
 70
     8
 71
     3
 72
     9
 73
     5
 74
     0
 42
0.00000001
 43
0.00000001
 40
0.0
 40
0.0
 40
0.0
 40
0.0
 40
0.7402681503996543
 40
1.0
 40
1.0
 40
1.0
 40
1.0
 10
5234.664111809521
 20
6654.756200578586
 30
0.0
 10
5239.466582429968
 20
6654.860490729438
 30
0.0
 10
5245.954056756473
 20
6655.001372315112
 30
0.0
 10
5249.564940401925
 20
6655.142244508442
 30
0.0
 10
5250.502801889849
 20
6655.178833503772
 30
0.0
  0
SPLINE
  5
335
330
1F
100
AcDbEntity
  8
0
  6
Continuous
 62
     7
370
    25
100
AcDbSpline
210
0.0
220
0.0
230
1.0
 70
     8
 71
     3
 72
    11
 73
     7
 74
     0
 42
0.00000001
 43
0.00000001
 40
0.0
 40
0.0
 40
0.0
 40
0.0
 40
0.3125853132506081
 40
0.6218984902718643
 40
0.991799903276223
 40
1.0
 40
1.0
 40
1.0
 40
1.0
 10
5224.203860796962
 20
6652.979189816047
 30
0.0
 10
5228.210630817159
 20
6653.069035666035
 30
0.0
 10
5236.182228076528
 20
6653.247786861615
 30
0.0
 10
5246.35516914016
 20
6653.522440341289
 30
0.0
 10
5252.663187891565
 20
6653.717213305153
 30
0.0
 10
5253.599151379625
 20
6653.823684396736
 30
0.0
 10
5253.619450137855
 20
6653.825993494232
 30
0.0
  0
SPLINE
  5
336
330
1F
100
AcDbEntity
  8
0
  6
Continuous
 62
     7
370
    25
100
AcDbSpline
210
0.0
220
0.0
230
1.0
 70
     8
 71
     3
 72
    10
 73
     6
 74
     0
 42
0.00000001
 43
0.00000001
 40
0.0
 40
0.0
 40
0.0
 40
0.0
 40
0.3127691959376001
 40
0.6224823689593992
 40
1.0
 40
1.0
 40
1.0
 40
1.0
 10
5224.203860796962
 20
6652.979189816047
 30
0.0
 10
5225.304462670189
 20
6653.099495627999
 30
0.0
 10
5227.494912593733
 20
6653.338931761084
 30
0.0
 10
5230.987630105376
 20
6653.926205377576
 30
0.0
 10
5233.360576985935
 20
6654.461917148124
 30
0.0
 10
5234.664111809518
 20
6654.756200578586
 30
0.0
  0
SPLINE
  5
337
330
1F
100
AcDbEntity
  8
0
  6
Continuous
 62
     7
370
    25
100
AcDbSpline
210
0.0
220
0.0
230
1.0
 70
     8
 71
     3
 72
    12
 73
     8
 74
     0
 42
0.00000001
 43
0.00000001
 40
0.0
 40
0.0
 40
0.0
 40
0.0
 40
0.2295376684124485
 40
0.4566725415271829
 40
0.7282985721955497
 40
0.9999246028639083
 40
1.0
 40
1.0
 40
1.0
 40
1.0
 10
5224.203860796962
 20
6651.729189816047
 30
0.0
 10
5228.176950975837
 20
6651.819030768272
 30
0.0
 10
5236.081541112404
 20
6651.997772219596
 30
0.0
 10
5246.785439016739
 20
6652.272502911649
 30
0.0
 10
5254.011200612105
 20
6652.569411580347
 30
0.0
 10
5257.291676437041
 20
6652.777428122562
 30
0.0
 10
5256.357595347296
 20
6652.881623719528
 30
0.0
 10
5256.357336139829
 20
6652.881652633802
 30
0.0
  0
SPLINE
  5
338
330
1F
100
AcDbEntity
  8
0
  6
Continuous
 62
     7
370
    25
100
AcDbSpline
210
0.0
220
0.0
230
1.0
 70
     8
 71
     3
 72
    11
 73
     7
 74
     0
 42
0.00000001
 43
0.00000001
 40
0.0
 40
0.0
 40
0.0
 40
0.0
 40
0.3240739526453338
 40
0.647783900060071
 40
0.9714938474748042
 40
1.0
 40
1.0
 40
1.0
 40
1.0
 10
5234.664111809521
 20
6650.381200592242
 30
0.0
 10
5239.252364775123
 20
6650.485490274935
 30
0.0
 10
5248.42371710461
 20
6650.693952500421
 30
0.0
 10
5256.583248288167
 20
6651.006564843133
 30
0.0
 10
5260.065501018825
 20
6651.224072246466
 30
0.0
 10
5258.894443447412
 20
6651.337411896234
 30
0.0
 10
5258.799665424056
 20
6651.346584893561
 30
0.0
  0
SPLINE
  5
339
330
1F
100
AcDbEntity
  8
0
  6
Continuous
 62
     7
370
    25
100
AcDbSpline
210
0.0
220
0.0
230
1.0
 70
     8
 71
     3
 72
    10
 73
     6
 74
     0
 42
0.00000001
 43
0.00000001
 40
0.0
 40
0.0
 40
0.0
 40
0.0
 40
0.3146003436808975
 40
0.6568370913738183
 40
1.0
 40
1.0
 40
1.0
 40
1.0
 10
5234.664111809518
 20
6650.381200592242
 30
0.0
 10
5233.576363407005
 20
6650.586624410972
 30
0.0
 10
5231.305312178984
 20
6651.015517723723
 30
0.0
 10
5227.815063365627
 20
6651.482883345373
 30
0.0
 10
5225.408678879338
 20
6651.647013730925
 30
0.0
 10
5224.203860796962
 20
6651.729189816047
 30
0.0
  0
SPLINE
  5
33A
330
1F
100
AcDbEntity
  8
0
  6
Continuous
 62
     7
370
    25
100
AcDbSpline
210
0.0
220
0.0
230
1.0
 70
     8
 71
     3
 72
    10
 73
     6
 74
     0
 42
0.00000001
 43
0.00000001
 40
0.0
 40
0.0
 40
0.0
 40
0.0
 40
0.4281038994429215
 40
0.9062319414377611
 40
1.0
 40
1.0
 40
1.0
 40
1.0
 10
5232.27350062493
 20
6649.218388624923
 30
0.0
 10
5234.644084655662
 20
6649.343674076195
 30
0.0
 10
5239.662256579131
 20
6649.608884642808
 30
0.0
 10
5244.576892159405
 20
6649.891784799083
 30
0.0
 10
5247.08408248928
 20
6650.044093388457
 30
0.0
 10
5247.49516130141
 20
6650.069065897823
 30
0.0
  0
SPLINE
  5
33B
330
1F
100
AcDbEntity
  8
0
  6
Continuous
 62
     7
370
    25
100
AcDbSpline
210
0.0
220
0.0
230
1.0
 70
     8
 71
     3
 72
     9
 73
     5
 74
     0
 42
0.00000001
 43
0.00000001
 40
0.0
 40
0.0
 40
0.0
 40
0.0
 40
0.5000000004504387
 40
1.0
 40
1.0
 40
1.0
 40
1.0
 10
5247.495161301411
 20
6650.069065897823
 30
0.0
 10
5250.812316155236
 20
6650.173232562594
 30
0.0
 10
5257.446625856908
 20
6650.381565891948
 30
0.0
 10
5258.525170578613
 20
6650.589899220156
 30
0.0
 10
5259.06444293898
 20
6650.694065884164
 30
0.0
  0
SPLINE
  5
33C
330
1F
100
AcDbEntity
  8
0
  6
Continuous
 62
     7
370
    25
100
AcDbSpline
210
0.0
220
0.0
230
1.0
 70
     8
 71
     3
 72
    11
 73
     7
 74
     0
 42
0.00000001
 43
0.00000001
 40
0.0
 40
0.0
 40
0.0
 40
0.0
 40
0.2351680940801723
 40
0.4678744536897642
 40
0.7461633131028498
 40
0.9999999999999999
 40
0.9999999999999999
 40
0.9999999999999999
 40
0.9999999999999999
 10
5224.203860796962
 20
6647.979189816047
 30
0.0
 10
5228.189771566241
 20
6648.069030226775
 30
0.0
 10
5236.119868677953
 20
6648.247770600775
 30
0.0
 10
5246.621652204396
 20
6648.522509829429
 30
0.0
 10
5254.509352492003
 20
6648.81018279765
 30
0.0
 10
5255.594419321103
 20
6649.009180855948
 30
0.0
 10
5256.112022301962
 20
6649.104107717038
 30
0.0
  0
SPLINE
  5
33D
330
1F
100
AcDbEntity
  8
0
  6
Continuous
 62
     7
370
    25
100
AcDbSpline
210
0.0
220
0.0
230
1.0
 70
     8
 71
     3
 72
    10
 73
     6
 74
     0
 42
0.00000001
 43
0.00000001
 40
0.0
 40
0.0
 40
0.0
 40
0.0
 40
0.4065921289765806
 40
0.8527847577419388
 40
1.0
 40
1.0
 40
1.0
 40
1.0
 10
5224.203860796962
 20
6647.979189816047
 30
0.0
 10
5225.304508496027
 20
6648.099291229531
 30
0.0
 10
5227.613002720371
 20
6648.351191469358
 30
0.0
 10
5230.298079450394
 20
6648.814002575344
 30
0.0
 10
5231.880841927737
 20
6649.138007943862
 30
0.0
 10
5232.27350062493
 20
6649.218388624923
 30
0.0
  0
SPLINE
  5
33E
330
1F
100
AcDbEntity
  8
0
  6
Continuous
 62
     7
370
    25
100
AcDbSpline
210
0.0
220
0.0
230
1.0
 70
     8
 71
     3
 72
    11
 73
     7
 74
     0
 42
0.00000001
 43
0.00000001
 40
0.0
 40
0.0
 40
0.0
 40
0.0
 40
0.2716190515625941
 40
0.5432758052509985
 40
0.7704363690891838
 40
0.9999999999999999
 40
0.9999999999999999
 40
0.9999999999999999
 40
0.9999999999999999
 10
5182.771161018769
 20
6661.631609261587
 30
0.0
 10
5183.322310086724
 20
6661.735661781473
 30
0.0
 10
5184.424684724968
 20
6661.943781264273
 30
0.0
 10
5192.494806289553
 20
6662.240618711997
 30
0.0
 10
5203.011925317989
 20
6662.515361939533
 30
0.0
 10
5210.940087078678
 20
6662.694101808872
 30
0.0
 10
5214.925025080993
 20
6662.783941965941
 30
0.0
  0
LINE
  5
33F
330
1F
100
AcDbEntity
  8
0
  6
Continuous
 62
     7
370
    25
100
AcDbLine
 10
5211.3212057798
 20
6663.0690658978
 30
0.0
 11
5214.925025081
 21
6662.7839419659
 31
0.0
  0
SPLINE
  5
340
330
1F
100
AcDbEntity
  8
0
  6
Continuous
 62
     7
370
    25
100
AcDbSpline
210
0.0
220
0.0
230
1.0
 70
     8
 71
     3
 72
    13
 73
     9
 74
     0
 42
0.00000001
 43
0.00000001
 40
0.0
 40
0.0
 40
0.0
 40
0.0
 40
0.1066796158837712
 40
0.391619626075325
 40
0.5323186937248332
 40
0.67183134988632
 40
0.8113440059940714
 40
1.0
 40
1.0
 40
1.0
 40
1.0
 10
5204.973590069802
 20
6649.877372748284
 30
0.0
 10
5203.476790400751
 20
6649.855586595199
 30
0.0
 10
5197.982056267645
 20
6649.775609881246
 30
0.0
 10
5191.526446428748
 20
6649.672804716293
 30
0.0
 10
5186.352044938673
 20
6649.561186708584
 30
0.0
 10
5183.492188067712
 20
6649.474865291812
 30
0.0
 10
5181.179801792064
 20
6649.378218699173
 30
0.0
 10
5181.286443137416
 20
6649.314016298165
 30
0.0
 10
5181.347748594237
 20
6649.277107934811
 30
0.0
  0
SPLINE
  5
341
330
1F
100
AcDbEntity
  8
0
  6
Continuous
 62
     7
370
    25
100
AcDbSpline
210
0.0
220
0.0
230
1.0
 70
     8
 71
     3
 72
    11
 73
     7
 74
     0
 42
0.00000001
 43
0.00000001
 40
0.0
 40
0.0
 40
0.0
 40
0.0
 40
0.2538576119626249
 40
0.5321386671692208
 40
0.7648385008671768
 40
1.0
 40
1.0
 40
1.0
 40
1.0
 10
5183.016581332554
 20
6650.408992573016
 30
0.0
 10
5183.534223639586
 20
6650.503929917139
 30
0.0
 10
5184.61931021708
 20
6650.702938453364
 30
0.0
 10
5192.507218690405
 20
6650.990621948656
 30
0.0
 10
5203.009020706192
 20
6651.265361182127
 30
0.0
 10
5210.939115484536
 20
6651.444101555519
 30
0.0
 10
5214.925025080993
 20
6651.53394196594
 30
0.0
  0
SPLINE
  5
342
330
1F
100
AcDbEntity
  8
0
  6
Continuous
 62
     7
370
    25
100
AcDbSpline
210
0.0
220
0.0
230
1.0
 70
     8
 71
     3
 72
    10
 73
     6
 74
     0
 42
0.00000001
 43
0.00000001
 40
0.0
 40
0.0
 40
0.0
 40
0.0
 40
0.328964848658684
 40
0.6547154290038097
 40
1.0
 40
1.0
 40
1.0
 40
1.0
 10
5214.925025080992
 20
6651.533941965941
 30
0.0
 10
5213.824415558761
 20
6651.413666359593
 30
0.0
 10
5211.633950411947
 20
6651.174290342581
 30
0.0
 10
5208.313302533002
 20
6650.61547307019
 30
0.0
 10
5206.108224338685
 20
6650.128135030467
 30
0.0
 10
5204.973590069802
 20
6649.877372748284
 30
0.0
  0
LINE
  5
343
330
1F
100
AcDbEntity
  8
0
  6
Continuous
 62
     7
370
    25
100
AcDbLine
 10
5254.064442939
 20
6645.0690658978
 30
0.0
 11
5185.064442939
 21
6645.0690658978
 31
0.0
  0
SPLINE
  5
344
330
1F
100
AcDbEntity
  8
0
  6
Continuous
 62
     7
370
    25
100
AcDbSpline
210
0.0
220
0.0
230
1.0
 70
     8
 71
     3
 72
     9
 73
     5
 74
     0
 42
0.00000001
 43
0.00000001
 40
0.0
 40
0.0
 40
0.0
 40
0.0
 40
0.4387937729804269
 40
1.0
 40
1.0
 40
1.0
 40
1.0
 10
5197.352047892615
 20
6647.362736522822
 30
0.0
 10
5199.12364576973
 20
6647.476938432355
 30
0.0
 10
5203.161072885165
 20
6647.737201719039
 30
0.0
 10
5207.949506689637
 20
6647.998424973042
 30
0.0
 10
5210.636805558378
 20
6648.145025089832
 30
0.0
  0
SPLINE
  5
345
330
1F
100
AcDbEntity
  8
0
  6
Continuous
 62
     7
370
    25
100
AcDbSpline
210
0.0
220
0.0
230
1.0
 70
    24
 71
     3
 72
    10
 73
     6
 74
     0
 42
0.00000001
 43
0.00000001
 40
0.0
 40
0.0
 40
0.0
 40
0.0
 40
0.3022815840825536
 40
0.6453307840072532
 40
1.0
 40
1.0
 40
1.0
 40
1.0
 10
5214.925025080993
 20
6647.362736522923
 30
0.0
 10
5213.020361330869
 20
6647.362736522881
 30
0.0
 10
5208.954158770536
 20
6647.362736522791
 30
0.0
 10
5202.939953427438
 20
6647.362736522831
 30
0.0
 10
5199.235249495317
 20
6647.362736522826
 30
0.0
 10
5197.352047892615
 20
6647.362736522822
 30
0.0
  0
SPLINE
  5
346
330
1F
100
AcDbEntity
  8
0
  6
Continuous
 62
     7
370
    25
100
AcDbSpline
210
0.0
220
0.0
230
1.0
 70
     8
 71
     3
 72
     9
 73
     5
 74
     0
 42
0.00000001
 43
0.00000001
 40
0.0
 40
0.0
 40
0.0
 40
0.0
 40
0.3378965482246407
 40
1.0
 40
1.0
 40
1.0
 40
1.0
 10
5214.925025080993
 20
6647.362736522923
 30
0.0
 10
5215.967868895782
 20
6647.252921849142
 30
0.0
 10
5219.054150245115
 20
6646.927926893264
 30
0.0
 10
5222.152459526785
 20
6647.189528918745
 30
0.0
 10
5224.203860796846
 20
6647.362736522808
 30
0.0
  0
SPLINE
  5
347
330
1F
100
AcDbEntity
  8
0
  6
Continuous
 62
     7
370
    25
100
AcDbSpline
210
0.0
220
0.0
230
1.0
 70
    24
 71
     3
 72
    12
 73
     8
 74
     0
 42
0.00000001
 43
0.00000001
 40
0.0
 40
0.0
 40
0.0
 40
0.0
 40
0.0855926390804691
 40
0.257077140003456
 40
0.4661637813496257
 40
0.8888928646532919
 40
0.9999999999999999
 40
0.9999999999999999
 40
0.9999999999999999
 40
0.9999999999999999
 10
5248.896740911779
 20
6647.362736522822
 30
0.0
 10
5248.379643950239
 20
6647.362736522822
 30
0.0
 10
5246.826545349646
 20
6647.362736522822
 30
0.0
 10
5243.589046051571
 20
6647.362736522823
 30
0.0
 10
5237.278953647724
 20
6647.362736522819
 30
0.0
 10
5230.412729525275
 20
6647.36273652284
 30
0.0
 10
5225.273489026805
 20
6647.362736522814
 30
0.0
 10
5224.203860796846
 20
6647.362736522808
 30
0.0
  0
SPLINE
  5
348
330
1F
100
AcDbEntity
  8
0
  6
Continuous
 62
     7
370
    25
100
AcDbSpline
210
0.0
220
0.0
230
1.0
 70
     8
 71
     3
 72
    11
 73
     7
 74
     0
 42
0.00000001
 43
0.00000001
 40
0.0
 40
0.0
 40
0.0
 40
0.0
 40
0.0453738027516323
 40
0.2891025804041324
 40
0.7817535475063442
 40
1.0
 40
1.0
 40
1.0
 40
1.0
 10
5256.604175206645
 20
6647.708617366294
 30
0.0
 10
5256.636658130931
 20
6647.703556448432
 30
0.0
 10
5256.84362551433
 20
6647.671310431475
 30
0.0
 10
5255.969920060475
 20
6647.585676043308
 30
0.0
 10
5253.425801548598
 20
6647.469941114909
 30
0.0
 10
5249.960571225691
 20
6647.387917791963
 30
0.0
 10
5248.896740911779
 20
6647.362736522822
 30
0.0
  0
SPLINE
  5
349
330
1F
100
AcDbEntity
  8
0
  6
Continuous
 62
     7
370
    25
100
AcDbSpline
210
0.0
220
0.0
230
1.0
 70
     8
 71
     3
 72
     9
 73
     5
 74
     0
 42
0.00000001
 43
0.00000001
 40
0.0
 40
0.0
 40
0.0
 40
0.0
 40
0.0699533069962945
 40
0.9999999999999999
 40
0.9999999999999999
 40
0.9999999999999999
 40
0.9999999999999999
 10
5204.973590069802
 20
6649.877372748284
 30
0.0
 10
5205.103157313223
 20
6649.829530429412
 30
0.0
 10
5206.955353427813
 20
6649.145612528661
 30
0.0
 10
5208.862795431113
 20
6648.627185983615
 30
0.0
 10
5210.636805558378
 20
6648.145025089832
 30
0.0
  0
SPLINE
  5
34A
330
1F
100
AcDbEntity
  8
0
  6
Continuous
 62
     7
370
    25
100
AcDbSpline
210
0.0
220
0.0
230
1.0
 70
     8
 71
     3
 72
     9
 73
     5
 74
     0
 42
0.00000001
 43
0.00000001
 40
0.0
 40
0.0
 40
0.0
 40
0.0
 40
0.500177791362939
 40
1.0
 40
1.0
 40
1.0
 40
1.0
 10
5197.352047892615
 20
6647.362736522821
 30
0.0
 10
5200.046839267079
 20
6647.433037831407
 30
0.0
 10
5205.434506254694
 20
6647.573590470486
 30
0.0
 10
5211.762268819914
 20
6647.713841424395
 30
0.0
 10
5214.925025080993
 20
6647.783941965941
 30
0.0
  0
SPLINE
  5
34B
330
1F
100
AcDbEntity
  8
0
  6
Continuous
 62
     7
370
    25
100
AcDbSpline
210
0.0
220
0.0
230
1.0
 70
     8
 71
     3
 72
     9
 73
     5
 74
     0
 42
0.00000001
 43
0.00000001
 40
0.0
 40
0.0
 40
0.0
 40
0.0
 40
0.1583528081235033
 40
1.0
 40
1.0
 40
1.0
 40
1.0
 10
5210.636805558378
 20
6648.145025089832
 30
0.0
 10
5210.862523550452
 20
6648.1193208107
 30
0.0
 10
5212.287935545026
 20
6647.956997960629
 30
0.0
 10
5213.719854507354
 20
6647.86302991102
 30
0.0
 10
5214.925025080993
 20
6647.783941965941
 30
0.0
  0
SPLINE
  5
34C
330
1F
100
AcDbEntity
  8
0
  6
Continuous
 62
     7
370
    25
100
AcDbSpline
210
0.0
220
0.0
230
1.0
 70
     8
 71
     3
 72
    10
 73
     6
 74
     0
 42
0.00000001
 43
0.00000001
 40
0.0
 40
0.0
 40
0.0
 40
0.0
 40
0.5027241732692389
 40
0.999832192434341
 40
1.0
 40
1.0
 40
1.0
 40
1.0
 10
5248.896740911779
 20
6647.362736522822
 30
0.0
 10
5250.899127890857
 20
6647.451340888961
 30
0.0
 10
5254.881532298377
 20
6647.627559782672
 30
0.0
 10
5257.125738964343
 20
6647.795939833631
 30
0.0
 10
5256.35759535273
 20
6647.881623719458
 30
0.0
 10
5256.357336139828
 20
6647.881652633802
 30
0.0
  0
LINE
  5
34D
330
1F
100
AcDbEntity
  8
0
  6
Continuous
 62
     7
370
    25
100
AcDbLine
 10
5224.2038607968
 20
6647.3627365228
 30
0.0
 11
5224.203860797
 21
6647.979189816
 31
0.0
  0
LINE
  5
34E
330
1F
100
AcDbEntity
  8
0
  6
Continuous
 62
     7
370
    25
100
AcDbLine
 10
5224.203860797
 20
6661.729189816
 30
0.0
 11
5224.203860797
 21
6662.979189816
 31
0.0
  0
LINE
  5
34F
330
1F
100
AcDbEntity
  8
0
  6
Continuous
 62
     7
370
    25
100
AcDbLine
 10
5234.6641118095
 20
6660.3812005922
 30
0.0
 11
5234.6641118095
 21
6659.7562005786
 31
0.0
  0
LINE
  5
350
330
1F
100
AcDbEntity
  8
0
  6
Continuous
 62
     7
370
    25
100
AcDbLine
 10
5224.203860797
 20
6656.729189816
 30
0.0
 11
5224.203860797
 21
6657.979189816
 31
0.0
  0
LINE
  5
351
330
1F
100
AcDbEntity
  8
0
  6
Continuous
 62
     7
370
    25
100
AcDbLine
 10
5234.6641118095
 20
6655.3812005922
 30
0.0
 11
5234.6641118095
 21
6654.7562005786
 31
0.0
  0
LINE
  5
352
330
1F
100
AcDbEntity
  8
0
  6
Continuous
 62
     7
370
    25
100
AcDbLine
 10
5224.203860797
 20
6651.729189816
 30
0.0
 11
5224.203860797
 21
6652.979189816
 31
0.0
  0
LINE
  5
353
330
1F
100
AcDbEntity
  8
0
  6
Continuous
 62
     7
370
    25
100
AcDbLine
 10
5234.6641118095
 20
6650.3812005922
 30
0.0
 11
5234.6641118095
 21
6650.0690658978
 31
0.0
  0
LINE
  5
354
330
1F
100
AcDbEntity
  8
0
  6
Continuous
 62
     7
370
    25
100
AcDbLine
 10
5232.2735006249
 20
6649.2183886249
 30
0.0
 11
5234.6641118095
 21
6650.0690658978
 31
0.0
  0
LINE
  5
355
330
1F
100
AcDbEntity
  8
0
  6
Continuous
 62
     7
370
    25
100
AcDbLine
 10
5214.925025081
 20
6647.7839419659
 30
0.0
 11
5214.925025081
 21
6647.3627365229
 31
0.0
  0
LINE
  5
356
330
1F
100
AcDbEntity
  8
0
  6
Continuous
 62
     7
370
    25
100
AcDbLine
 10
5214.925025081
 20
6652.7839419659
 30
0.0
 11
5214.925025081
 21
6651.5339419659
 31
0.0
  0
LINE
  5
357
330
1F
100
AcDbEntity
  8
0
  6
Continuous
 62
     7
370
    25
100
AcDbLine
 10
5204.4647740684
 20
6654.1319311897
 30
0.0
 11
5204.4647740684
 21
6654.7569312034
 31
0.0
  0
LINE
  5
358
330
1F
100
AcDbEntity
  8
0
  6
Continuous
 62
     7
370
    25
100
AcDbLine
 10
5214.925025081
 20
6657.7839419659
 30
0.0
 11
5214.925025081
 21
6656.5339419659
 31
0.0
  0
LINE
  5
359
330
1F
100
AcDbEntity
  8
0
  6
Continuous
 62
     7
370
    25
100
AcDbLine
 10
5204.4647740684
 20
6659.1319311897
 30
0.0
 11
5204.4647740684
 21
6659.7569312034
 31
0.0
  0
LINE
  5
35A
330
1F
100
AcDbEntity
  8
0
  6
Continuous
 62
     7
370
    25
100
AcDbLine
 10
5214.925025081
 20
6662.7839419659
 30
0.0
 11
5214.925025081
 21
6661.5339419659
 31
0.0
  0
LINE
  5
35B
330
1F
100
AcDbEntity
  8
0
  6
Continuous
 62
     7
370
    25
100
AcDbLine
 10
5234.6641118095
 20
6650.0690658978
 30
0.0
 11
5247.4951613014
 21
6650.0690658978
 31
0.0
  0
LINE
  5
35C
330
1F
100
AcDbEntity
  8
0
  6
Continuous
 62
     7
370
    25
100
AcDbLine
 10
5351.064442939
 20
7033.0690658978
 30
0.0
 11
5141.064442939
 21
7033.0690658978
 31
0.0
  0
LINE
  5
35D
330
1F
100
AcDbEntity
  8
0
  6
Continuous
 62
     7
370
    25
100
AcDbLine
 10
5141.064442939
 20
6693.0690658978
 30
0.0
 11
5351.064442939
 21
6693.0690658978
 31
0.0
  0
LINE
  5
35E
330
1F
100
AcDbEntity
  8
0
  6
Continuous
 62
     7
370
    25
100
AcDbLine
 10
5141.064442939
 20
7033.0690658978
 30
0.0
 11
5141.064442939
 21
6693.0690658978
 31
0.0
  0
LINE
  5
35F
330
1F
100
AcDbEntity
  8
0
  6
Continuous
 62
     7
370
    25
100
AcDbLine
 10
5351.064442939
 20
6663.0690658978
 30
0.0
 11
5141.064442939
 21
6663.0690658978
 31
0.0
  0
LINE
  5
360
330
1F
100
AcDbEntity
  8
0
  6
Continuous
 62
     7
370
    25
100
AcDbLine
 10
5141.064442939
 20
6663.0690658978
 30
0.0
 11
5141.064442939
 21
6693.0690658978
 31
0.0
  0
LINE
  5
361
330
1F
100
AcDbEntity
  8
0
  6
Continuous
 62
     7
370
    25
100
AcDbLine
 10
5141.064442939
 20
7063.0690658978
 30
0.0
 11
5351.064442939
 21
7063.0690658978
 31
0.0
  0
LINE
  5
362
330
1F
100
AcDbEntity
  8
0
  6
Continuous
 62
     7
370
    25
100
AcDbLine
 10
5141.064442939
 20
7033.0690658978
 30
0.0
 11
5141.064442939
 21
7063.0690658978
 31
0.0
  0
LINE
  5
363
330
1F
100
AcDbEntity
  8
0
  6
Continuous
 62
     7
370
    25
100
AcDbLine
 10
5698.7781850069
 20
7906.7181800741
 30
0.0
 11
5698.7788889216
 21
7906.7203106437
 31
0.0
  0
ARC
  5
364
330
1F
100
AcDbEntity
  8
0
  6
Continuous
 62
     7
370
    25
100
AcDbCircle
 10
5674.7117429032
 20
7832.4806669561
 30
0.0
 40
78.04102760395074
100
AcDbArc
 50
70.2915268595
 51
72.0382553616
  0
SPLINE
  5
365
330
1F
100
AcDbEntity
  8
0
  6
Continuous
 62
     7
370
    25
100
AcDbSpline
210
0.0
220
0.0
230
1.0
 70
     8
 71
     3
 72
    12
 73
     8
 74
     0
 42
0.00000001
 43
0.00000001
 40
0.0
 40
0.0
 40
0.0
 40
0.0
 40
0.2208816157595316
 40
0.4416472826121104
 40
0.6656201526439427
 40
0.8925611272395895
 40
0.9999999999999999
 40
0.9999999999999999
 40
0.9999999999999999
 40
0.9999999999999999
 10
5701.029868527638
 20
7905.950104500564
 30
0.0
 10
5699.322518845594
 20
7900.442933713553
 30
0.0
 10
5695.908715732329
 20
7889.4314830566
 30
0.0
 10
5692.440890049673
 20
7874.199132943378
 30
0.0
 10
5690.227155771078
 20
7862.517699747623
 30
0.0
 10
5689.123369004503
 20
7855.816593230153
 30
0.0
 10
5688.953005206526
 20
7855.588938803905
 30
0.0
 10
5688.898265979389
 20
7855.515791647675
 30
0.0
  0
LINE
  5
366
330
1F
100
AcDbEntity
  8
0
  6
Continuous
 62
     7
370
    25
100
AcDbLine
 10
5688.814084974
 20
7855.2767153836
 30
0.0
 11
5688.7696563424
 21
7855.1505369042
 31
0.0
  0
SPLINE
  5
367
330
1F
100
AcDbEntity
  8
0
  6
Continuous
 62
     7
370
    25
100
AcDbSpline
210
0.0
220
0.0
230
1.0
 70
     8
 71
     3
 72
    12
 73
     8
 74
     0
 42
0.00000001
 43
0.00000001
 40
0.0
 40
0.0
 40
0.0
 40
0.0
 40
0.1570307519336261
 40
0.3802163862211095
 40
0.6061430262368744
 40
0.8327766676540777
 40
1.0
 40
1.0
 40
1.0
 40
1.0
 10
5721.05723466213
 20
7952.769173714078
 30
0.0
 10
5720.955323696287
 20
7952.49155439996
 30
0.0
 10
5720.708568085223
 20
7951.819358597172
 30
0.0
 10
5717.117004797101
 20
7944.905854408012
 30
0.0
 10
5711.647412986287
 20
7933.496349189197
 30
0.0
 10
5705.799692159763
 20
7919.738430850184
 30
0.0
 10
5702.451929211557
 20
7910.06097820288
 30
0.0
 10
5701.030539942366
 20
7905.952136699223
 30
0.0
  0
ARC
  5
368
330
1F
100
AcDbEntity
  8
0
  6
Continuous
 62
     7
370
    25
100
AcDbCircle
 10
5674.8025213547
 20
7832.7573434262
 30
0.0
 40
77.75208499655227
100
AcDbArc
 50
70.2857857252
 51
72.0390066702
  0
LINE
  5
369
330
1F
100
AcDbEntity
  8
0
  6
Continuous
 62
     7
370
    25
100
AcDbLine
 10
5701.0305399424
 20
7905.9521366992
 30
0.0
 11
5701.0298685276
 21
7905.9501045006
 31
0.0
  0
LINE
  5
36A
330
1F
100
AcDbEntity
  8
0
  6
Continuous
 62
     7
370
    25
100
AcDbLine
 10
5947.6239555864
 20
8085.8270138552
 30
0.0
 11
5947.6239555864
 21
8088.4520138658
 31
0.0
  0
LINE
  5
36B
330
1F
100
AcDbEntity
  8
0
  6
Continuous
 62
     7
370
    25
100
AcDbLine
 10
5947.6239555864
 20
8085.8270138552
 30
0.0
 11
5957.5582171423
 21
8085.8270138552
 31
0.0
  0
SPLINE
  5
36C
330
1F
100
AcDbEntity
  8
0
  6
Continuous
 62
     7
370
    25
100
AcDbSpline
210
0.0
220
0.0
230
1.0
 70
     8
 71
     3
 72
    11
 73
     7
 74
     0
 42
0.00000001
 43
0.00000001
 40
0.0
 40
0.0
 40
0.0
 40
0.0
 40
0.2532083958850757
 40
0.5118228287820588
 40
0.7608432626967032
 40
1.0
 40
1.0
 40
1.0
 40
1.0
 10
5947.6239555864
 20
8085.827013855152
 30
0.0
 10
5947.745084508336
 20
8085.903109281773
 30
0.0
 10
5947.989928472754
 20
8086.056924783725
 30
0.0
 10
5950.539227163804
 20
8086.312203945045
 30
0.0
 10
5954.138496764219
 20
8086.519259773304
 30
0.0
 10
5956.873731317519
 20
8086.679926293222
 30
0.0
 10
5958.213715671753
 20
8086.758636407016
 30
0.0
  0
SPLINE
  5
36D
330
1F
100
AcDbEntity
  8
0
  6
Continuous
 62
     7
370
    25
100
AcDbSpline
210
0.0
220
0.0
230
1.0
 70
     8
 71
     3
 72
     9
 73
     5
 74
     0
 42
0.00000001
 43
0.00000001
 40
0.0
 40
0.0
 40
0.0
 40
0.0
 40
0.6813069025913825
 40
1.0
 40
1.0
 40
1.0
 40
1.0
 10
5947.623955586401
 20
8088.452013865799
 30
0.0
 10
5947.67833292332
 20
8088.528411538982
 30
0.0
 10
5947.75814620088
 20
8088.640545546273
 30
0.0
 10
5949.044503095904
 20
8088.760170542359
 30
0.0
 10
5949.454456159152
 20
8088.79829420289
 30
0.0
  0
SPLINE
  5
36E
330
1F
100
AcDbEntity
  8
0
  6
Continuous
 62
     7
370
    25
100
AcDbSpline
210
0.0
220
0.0
230
1.0
 70
     8
 71
     3
 72
     9
 73
     5
 74
     0
 42
0.00000001
 43
0.00000001
 40
0.0
 40
0.0
 40
0.0
 40
0.0
 40
0.8611039150046027
 40
1.0
 40
1.0
 40
1.0
 40
1.0
 10
5949.517036909867
 20
8087.358263860475
 30
0.0
 10
5949.521199729301
 20
8087.434358161069
 30
0.0
 10
5949.526034011623
 20
8087.522726474424
 30
0.0
 10
5950.304561702223
 20
8087.617011549012
 30
0.0
 10
5950.412696150507
 20
8087.630107376746
 30
0.0
  0
LINE
  5
36F
330
1F
100
AcDbEntity
  8
0
  6
Continuous
 62
     7
370
    25
100
AcDbLine
 10
5947.6239555864
 20
8088.4520138658
 30
0.0
 11
5949.5170369099
 21
8087.3582638605
 31
0.0
  0
LINE
  5
370
330
1F
100
AcDbEntity
  8
0
  6
Continuous
 62
     7
370
    25
100
AcDbLine
 10
5950.172828231
 20
8087.1622451142
 30
0.0
 11
5951.5950596071
 21
8087.3422698649
 31
0.0
  0
LINE
  5
371
330
1F
100
AcDbEntity
  8
0
  6
Continuous
 62
     7
370
    25
100
AcDbLine
 10
5963.971700916
 20
8083.3270138552
 30
0.0
 11
5950.116833359
 21
8083.3270138552
 31
0.0
  0
LWPOLYLINE
  5
372
330
1F
100
AcDbEntity
  8
0
  6
Continuous
 62
     7
370
    25
100
AcDbPolyline
 90
       10
 70
   128
 43
0.0
 10
6059.6273671496
 20
8086.1630112165
 10
6058.805616706
 20
8085.8375770515
 10
6056.3209283796
 20
8084.9108189581
 10
6052.5515734442
 20
8083.5238274548
 10
6048.0714020194
 20
8081.887759425
 10
6043.5624795919
 20
8080.2516913951
 10
6039.7112487278
 20
8078.8646998919
 10
6037.1040244146
 20
8077.9379417984
 10
6036.1377329194
 20
8077.6125076334
 10
6036.1362354548
 20
8077.6129385169
  0
SPLINE
  5
373
330
1F
100
AcDbEntity
  8
0
  6
Continuous
 62
     7
370
    25
100
AcDbSpline
210
0.0
220
0.0
230
1.0
 70
     8
 71
     3
 72
    21
 73
    17
 74
     0
 42
0.00000001
 43
0.00000001
 40
0.0
 40
0.0
 40
0.0
 40
0.0
 40
0.0000007106391667
 40
0.0965453192674226
 40
0.1930868990282954
 40
0.2908693950203619
 40
0.388760369817807
 40
0.4864559876876896
 40
0.5811855983251228
 40
0.6761236494902206
 40
0.7705574714784799
 40
0.8374129811940999
 40
0.9045194722820789
 40
0.9712852454281726
 40
0.9999992893608336
 40
1.0
 40
1.0
 40
1.0
 40
1.0
 10
5631.47817356906
 20
7766.249228967407
 30
0.0
 10
5631.478175328269
 20
7766.249328857101
 30
0.0
 10
5631.71717611169
 20
7779.820045089993
 30
0.0
 10
5633.024403184599
 20
7806.955684915422
 30
0.0
 10
5637.53623454032
 20
7847.627980533944
 30
0.0
 10
5644.68730731587
 20
7888.119305310771
 30
0.0
 10
5654.802902490659
 20
7928.150397515656
 30
0.0
 10
5668.057869235609
 20
7966.809866998366
 30
0.0
 10
5684.6387701029
 20
8003.722152834259
 30
0.0
 10
5704.867318562434
 20
8038.257229141223
 30
0.0
 10
5726.979908206009
 20
8066.857960122793
 30
0.0
 10
5750.030439186217
 20
8089.310781871181
 30
0.0
 10
5772.632947658818
 20
8106.317318113961
 30
0.0
 10
5792.641268540076
 20
8117.518018520262
 30
0.0
 10
5804.980339604079
 20
8122.805798867487
 30
0.0
 10
5808.734496959757
 20
8124.284300549382
 30
0.0
 10
5808.734589868483
 20
8124.284337139674
 30
0.0
  0
SPLINE
  5
374
330
1F
100
AcDbEntity
  8
0
  6
Continuous
 62
     7
370
    25
100
AcDbSpline
210
0.0
220
0.0
230
1.0
 70
     8
 71
     3
 72
    11
 73
     7
 74
     0
 42
0.00000001
 43
0.00000001
 40
0.0
 40
0.0
 40
0.0
 40
0.0
 40
0.2499998055689586
 40
0.4999997378151414
 40
0.7499998006599783
 40
1.0
 40
1.0
 40
1.0
 40
1.0
 10
5808.734010550279
 20
8124.285619413468
 30
0.0
 10
5808.856435166233
 20
8123.972652624744
 30
0.0
 10
5809.101284460173
 20
8123.346718888713
 30
0.0
 10
5809.435524897151
 20
8122.450390443525
 30
0.0
 10
5809.733586853212
 20
8121.620376687275
 30
0.0
 10
5809.885329172769
 20
8121.165117204706
 30
0.0
 10
5809.961200353259
 20
8120.937487401282
 30
0.0
  0
SPLINE
  5
375
330
1F
100
AcDbEntity
  8
0
  6
Continuous
 62
     7
370
    25
100
AcDbSpline
210
0.0
220
0.0
230
1.0
 70
     8
 71
     3
 72
    20
 73
    16
 74
     0
 42
0.00000001
 43
0.00000001
 40
0.0
 40
0.0
 40
0.0
 40
0.0
 40
0.0285136227561447
 40
0.0948803407944446
 40
0.1615882104413654
 40
0.2280451067586041
 40
0.3224438291309424
 40
0.4173503070575607
 40
0.5120496628437625
 40
0.6100815622303927
 40
0.7083099767151547
 40
0.8064303115316206
 40
0.9032135496490558
 40
0.9999992815076063
 40
1.0
 40
1.0
 40
1.0
 40
1.0
 10
5809.961179925567
 20
8120.937552700154
 30
0.0
 10
5806.300914117204
 20
8119.416758220945
 30
0.0
 10
5794.121217757123
 20
8114.356247331123
 30
0.0
 10
5774.501238370234
 20
8103.228962055059
 30
0.0
 10
5752.286271728804
 20
8086.51422952852
 30
0.0
 10
5729.610954180676
 20
8064.338671094046
 30
0.0
 10
5707.838486470617
 20
8036.054906168076
 30
0.0
 10
5687.919872255055
 20
8001.856938574898
 30
0.0
 10
5671.590361610094
 20
7965.271817987132
 30
0.0
 10
5658.537448105147
 20
7926.91690541258
 30
0.0
 10
5648.588665700137
 20
7887.160318752579
 30
0.0
 10
5641.581260061192
 20
7846.967221635093
 30
0.0
 10
5637.177174359667
 20
7806.615374515457
 30
0.0
 10
5635.918467320416
 20
7779.70603665471
 30
0.0
 10
5635.699673756531
 20
7766.249328863024
 30
0.0
 10
5635.699672132321
 20
7766.249228967407
 30
0.0
  0
SPLINE
  5
376
330
1F
100
AcDbEntity
  8
0
  6
Continuous
 62
     7
370
    25
100
AcDbSpline
210
0.0
220
0.0
230
1.0
 70
    24
 71
     3
 72
    10
 73
     6
 74
     0
 42
0.00000001
 43
0.00000001
 40
0.0
 40
0.0
 40
0.0
 40
0.0
 40
0.3317097585614573
 40
0.6634278230378602
 40
1.0
 40
1.0
 40
1.0
 40
1.0
 10
5635.699672132321
 20
7766.249228967407
 30
0.0
 10
5635.363607540615
 20
7766.249228967407
 30
0.0
 10
5634.691469942246
 20
7766.249228967407
 30
0.0
 10
5633.176033498999
 20
7766.249228967407
 30
0.0
 10
5632.046860786665
 20
7766.249228967407
 30
0.0
 10
5631.47817356906
 20
7766.249228967407
 30
0.0
  0
LINE
  5
377
330
1F
100
AcDbEntity
  8
0
  6
Continuous
 62
     7
370
    25
100
AcDbLine
 10
5808.734300053
 20
8124.284978155
 30
0.0
 11
5789.8458016968
 21
8166.0626446291
 31
0.0
  0
LINE
  5
378
330
1F
100
AcDbEntity
  8
0
  6
Continuous
 62
     7
370
    25
100
AcDbLine
 10
5539.779912183
 20
7766.2492289674
 30
0.0
 11
5397.6807488159
 21
7766.2492289674
 31
0.0
  0
LINE
  5
379
330
1F
100
AcDbEntity
  8
0
  6
Continuous
 62
     7
370
    25
100
AcDbLine
 10
5539.7799121833
 20
7766.2492289674
 30
0.0
 11
5631.4781735649
 21
7766.2492289674
 31
0.0
  0
SPLINE
  5
37A
330
1F
100
AcDbEntity
  8
0
  6
Continuous
 62
     7
370
    25
100
AcDbSpline
210
0.0
220
0.0
230
1.0
 70
     8
 71
     3
 72
    19
 73
    15
 74
     0
 42
0.00000001
 43
0.00000001
 40
0.0
 40
0.0
 40
0.0
 40
0.0
 40
0.0367073493362315
 40
0.1385159308117977
 40
0.2445910958990897
 40
0.3577671613746531
 40
0.4131682835659129
 40
0.4704025324838264
 40
0.5752848469059104
 40
0.6785754707869248
 40
0.7873407612136416
 40
0.9009410405154195
 40
0.959356706430142
 40
1.0
 40
1.0
 40
1.0
 40
1.0
 10
5717.969548648862
 20
7956.909311202247
 30
0.0
 10
5718.062998323622
 20
7956.981756549657
 30
0.0
 10
5718.415632575828
 20
7957.255130544534
 30
0.0
 10
5714.961755552111
 20
7953.006207355895
 30
0.0
 10
5708.693352816098
 20
7944.407222843014
 30
0.0
 10
5702.031495051297
 20
7933.287230539549
 30
0.0
 10
5696.978510780003
 20
7922.556263027013
 30
0.0
 10
5692.569603524163
 20
7911.383235612529
 30
0.0
 10
5688.392881848479
 20
7896.825607153324
 30
0.0
 10
5685.59011671386
 20
7880.292257211466
 30
0.0
 10
5684.416649841884
 20
7865.933399338706
 30
0.0
 10
5684.18340662107
 20
7857.546847984837
 30
0.0
 10
5684.077530466117
 20
7853.895961779494
 30
0.0
 10
5684.003352749211
 20
7853.536183991934
 30
0.0
 10
5683.972918079394
 20
7853.388569335815
 30
0.0
  0
SPLINE
  5
37B
330
1F
100
AcDbEntity
  8
0
  6
Continuous
 62
     7
370
    25
100
AcDbSpline
210
0.0
220
0.0
230
1.0
 70
     8
 71
     3
 72
     9
 73
     5
 74
     0
 42
0.00000001
 43
0.00000001
 40
0.0
 40
0.0
 40
0.0
 40
0.0
 40
0.0012468186622652
 40
1.0
 40
1.0
 40
1.0
 40
1.0
 10
5810.185134398615
 20
8121.024296711798
 30
0.0
 10
5810.185041308044
 20
8121.024260690671
 30
0.0
 10
5810.110378829951
 20
8120.995370260412
 30
0.0
 10
5810.035743062971
 20
8120.966410777233
 30
0.0
 10
5809.961200353259
 20
8120.937487401282
 30
0.0
  0
ARC
  5
37C
330
1F
100
AcDbEntity
  8
0
  6
Continuous
 62
     7
370
    25
100
AcDbCircle
 10
5381.0884552631
 20
7920.1441045957
 30
0.0
 40
473.7899106044247
100
AcDbArc
 50
19.4903904207
 51
25.0867958145
  0
LINE
  5
37D
330
1F
100
AcDbEntity
  8
0
  6
Continuous
 62
     7
370
    25
100
AcDbLine
 10
5635.6995146816
 20
7766.2492289674
 30
0.0
 11
5672.4264169255
 21
7766.2492289674
 31
0.0
  0
SPLINE
  5
37E
330
1F
100
AcDbEntity
  8
0
  6
Continuous
 62
     7
370
    25
100
AcDbSpline
210
0.0
220
0.0
230
1.0
 70
     8
 71
     3
 72
    17
 73
    13
 74
     0
 42
0.00000001
 43
0.00000001
 40
0.0
 40
0.0
 40
0.0
 40
0.0
 40
0.0000012298496262
 40
0.1028197981540118
 40
0.2057134742826126
 40
0.340597209675627
 40
0.4756185933194604
 40
0.5992553551332604
 40
0.722941252263078
 40
0.8615483715142073
 40
0.9999987701503746
 40
1.0
 40
1.0
 40
1.0
 40
1.0
 10
6035.368428168407
 20
8079.385137388922
 30
0.0
 10
6035.368363098768
 20
8079.385213101355
 30
0.0
 10
6029.928310063522
 20
8085.715041568564
 30
0.0
 10
6017.887082343054
 20
8097.420531963297
 30
0.0
 10
5995.16662685283
 20
8113.345503226986
 30
0.0
 10
5967.585650201782
 20
8126.224260061258
 30
0.0
 10
5936.624118232341
 20
8134.627655995376
 30
0.0
 10
5905.685888640343
 20
8138.085526432226
 30
0.0
 10
5874.288912214352
 20
8137.388884918302
 30
0.0
 10
5842.056080787408
 20
8132.326790601416
 30
0.0
 10
5820.525019631172
 20
8125.42201185976
 30
0.0
 10
5810.183207739936
 20
8121.02898474209
 30
0.0
 10
5810.18311587483
 20
8121.028945719344
 30
0.0
  0
SPLINE
  5
37F
330
1F
100
AcDbEntity
  8
0
  6
Continuous
 62
     7
370
    25
100
AcDbSpline
210
0.0
220
0.0
230
1.0
 70
     8
 71
     3
 72
    11
 73
     7
 74
     0
 42
0.00000001
 43
0.00000001
 40
0.0
 40
0.0
 40
0.0
 40
0.0
 40
0.2500000425549546
 40
0.5000000567394912
 40
0.7500000425543022
 40
0.9999999999999999
 40
0.9999999999999999
 40
0.9999999999999999
 40
0.9999999999999999
 10
5810.18344382219
 20
8121.029085025679
 30
0.0
 10
5810.102024718651
 20
8121.25427285314
 30
0.0
 10
5809.939186520813
 20
8121.704648482502
 30
0.0
 10
5809.620113404105
 20
8122.52465052998
 30
0.0
 10
5809.262958642414
 20
8123.409761928382
 30
0.0
 10
5809.0020983168
 20
8124.02772913852
 30
0.0
 10
5808.871668161392
 20
8124.336712726059
 30
0.0
  0
SPLINE
  5
380
330
1F
100
AcDbEntity
  8
0
  6
Continuous
 62
     7
370
    25
100
AcDbSpline
210
0.0
220
0.0
230
1.0
 70
     8
 71
     3
 72
    16
 73
    12
 74
     0
 42
0.00000001
 43
0.00000001
 40
0.0
 40
0.0
 40
0.0
 40
0.0
 40
0.1373397094396544
 40
0.2748319314135537
 40
0.3974910594955499
 40
0.5201032835852436
 40
0.6544642449756222
 40
0.7886928795780727
 40
0.8943439883241661
 40
0.999998800364471
 40
1.0
 40
1.0
 40
1.0
 40
1.0
 10
5808.871599290604
 20
8124.336683325519
 30
0.0
 10
5819.628903879868
 20
8128.271350042008
 30
0.0
 10
5841.155458793472
 20
8136.145052830324
 30
0.0
 10
5874.073375243674
 20
8141.022450846946
 30
0.0
 10
5905.967307486989
 20
8141.830644421864
 30
0.0
 10
5937.475945934508
 20
8138.311889455494
 30
0.0
 10
5969.029390555379
 20
8129.760826074593
 30
0.0
 10
5997.44485298354
 20
8116.554465110523
 30
0.0
 10
6021.014121653431
 20
8099.876534106793
 30
0.0
 10
6033.624893268046
 20
8087.487346432996
 30
0.0
 10
6039.374697865833
 20
8080.832645635569
 30
0.0
 10
6039.374763150048
 20
8080.832570077014
 30
0.0
  0
SPLINE
  5
381
330
1F
100
AcDbEntity
  8
0
  6
Continuous
 62
     7
370
    25
100
AcDbSpline
210
0.0
220
0.0
230
1.0
 70
     8
 71
     3
 72
    10
 73
     6
 74
     0
 42
0.00000001
 43
0.00000001
 40
0.0
 40
0.0
 40
0.0
 40
0.0
 40
0.3887479228133152
 40
0.7781092624589823
 40
1.0
 40
1.0
 40
1.0
 40
1.0
 10
6039.374763150048
 20
8080.832570077014
 30
0.0
 10
6038.78633181914
 20
8080.61870785585
 30
0.0
 10
6037.608540654141
 20
8080.190645954003
 30
0.0
 10
6036.228174824944
 20
8079.692637426916
 30
0.0
 10
6035.597404301125
 20
8079.467033804541
 30
0.0
 10
6035.368428168407
 20
8079.385137388922
 30
0.0
  0
LWPOLYLINE
  5
382
330
1F
100
AcDbEntity
  8
0
  6
Continuous
 62
     7
370
    25
100
AcDbPolyline
 90
        9
 70
   128
 43
0.0
 10
6222.9978221538
 20
8148.2840628495
 10
6221.4132850221
 20
8147.5947334861
 10
6215.7170025872
 20
8145.4051558805
 10
6206.2428142142
 20
8141.8494747881
 10
6193.3548076491
 20
8137.0643330393
 10
6177.5482617564
 20
8131.233620948
 10
6159.4306132304
 20
8124.5814095098
 10
6139.6981131435
 20
8117.3633394799
 10
6119.1090704078
 20
8109.8567972414
  0
LINE
  5
383
330
1F
100
AcDbEntity
  8
0
  6
Continuous
 62
     7
370
    25
100
AcDbLine
 10
6119.1090704078
 20
8109.8567972414
 30
0.0
 11
6039.37476315
 21
8080.832570077
 31
0.0
  0
SPLINE
  5
384
330
1F
100
AcDbEntity
  8
0
  6
Continuous
 62
     7
370
    25
100
AcDbSpline
210
0.0
220
0.0
230
1.0
 70
     8
 71
     3
 72
     9
 73
     5
 74
     0
 42
0.00000001
 43
0.00000001
 40
0.0
 40
0.0
 40
0.0
 40
0.0
 40
0.0020406977229375
 40
1.0
 40
1.0
 40
1.0
 40
1.0
 10
5808.734010190608
 20
8124.285619273829
 30
0.0
 10
5808.734103246453
 20
8124.285655402145
 30
0.0
 10
5808.779703260245
 20
8124.303359305965
 30
0.0
 10
5808.825313070285
 20
8124.321037937847
 30
0.0
 10
5808.870829804488
 20
8124.338680492986
 30
0.0
  0
LWPOLYLINE
  5
385
330
1F
100
AcDbEntity
  8
0
  6
Continuous
 62
     7
370
    25
100
AcDbPolyline
 90
        6
 70
   128
 43
0.0
 10
6035.3684760911
 20
8079.385155058
 10
6019.8384572898
 20
8073.8654355114
 10
6008.1896233047
 20
8069.7711891816
 10
6000.5064836323
 20
8067.1361725157
 10
5997.6122679692
 20
8066.2492289674
 10
5997.7239858215
 20
8066.2992998574
  0
SPLINE
  5
386
330
1F
100
AcDbEntity
  8
0
  6
Continuous
 62
     7
370
    25
100
AcDbSpline
210
0.0
220
0.0
230
1.0
 70
     8
 71
     3
 72
     9
 73
     5
 74
     0
 42
0.00000001
 43
0.00000001
 40
0.0
 40
0.0
 40
0.0
 40
0.0
 40
0.36413240809532
 40
1.0
 40
1.0
 40
1.0
 40
1.0
 10
5951.595059607091
 20
8087.342269864923
 30
0.0
 10
5951.223982253308
 20
8087.431010810519
 30
0.0
 10
5950.204909670008
 20
8087.67471596728
 30
0.0
 10
5949.802150011818
 20
8087.7547876209
 30
0.0
 10
5949.546048197848
 20
8087.805702590469
 30
0.0
  0
SPLINE
  5
387
330
1F
100
AcDbEntity
  8
0
  6
Continuous
 62
     7
370
    25
100
AcDbSpline
210
0.0
220
0.0
230
1.0
 70
     8
 71
     3
 72
    10
 73
     6
 74
     0
 42
0.00000001
 43
0.00000001
 40
0.0
 40
0.0
 40
0.0
 40
0.0
 40
0.0859962106907249
 40
0.7375440269764689
 40
1.0
 40
1.0
 40
1.0
 40
1.0
 10
5963.91306823589
 20
8083.327013855152
 30
0.0
 10
5964.006059743091
 20
8083.291146175967
 30
0.0
 10
5964.803598729341
 20
8082.983528057303
 30
0.0
 10
5965.489024492319
 20
8082.692751986853
 30
0.0
 10
5965.622598986756
 20
8082.64557017349
 30
0.0
 10
5965.660954871401
 20
8082.632021926884
 30
0.0
  0
SPLINE
  5
388
330
1F
100
AcDbEntity
  8
0
  6
Continuous
 62
     7
370
    25
100
AcDbSpline
210
0.0
220
0.0
230
1.0
 70
     8
 71
     3
 72
    13
 73
     9
 74
     0
 42
0.00000001
 43
0.00000001
 40
0.0
 40
0.0
 40
0.0
 40
0.0
 40
0.0203857700471552
 40
0.2147155202388428
 40
0.4103542237706967
 40
0.617608412546509
 40
0.839906724138286
 40
1.0
 40
1.0
 40
1.0
 40
1.0
 10
5965.826938894436
 20
8082.569482542411
 30
0.0
 10
5965.839986634031
 20
8082.564503711807
 30
0.0
 10
5965.977413485617
 20
8082.512063592988
 30
0.0
 10
5965.44964797713
 20
8082.749538571946
 30
0.0
 10
5964.261099330952
 20
8083.258722997094
 30
0.0
 10
5962.286554967074
 20
8084.048736662751
 30
0.0
 10
5960.012658699256
 20
8084.887151087109
 30
0.0
 10
5958.411726870489
 20
8085.412319991009
 30
0.0
 10
5957.741475669081
 20
8085.632188871406
 30
0.0
  0
LINE
  5
389
330
1F
100
AcDbEntity
  8
0
  6
Continuous
 62
     8
370
    25
100
AcDbLine
 10
5602.5086047811
 20
7091.0961252424
 30
0.0
 11
5085.0086047811
 21
7091.0961252424
 31
0.0
  0
LINE
  5
38A
330
1F
100
AcDbEntity
  8
0
  6
Continuous
 62
     8
370
    25
100
AcDbLine
 10
5607.5086047811
 20
7008.5961252424
 30
0.0
 11
5531.3982064946
 21
7008.5961252424
 31
0.0
  0
LINE
  5
38B
330
1F
100
AcDbEntity
  8
0
  6
Continuous
 62
     8
370
    25
100
AcDbLine
 10
5430.564442939
 20
7008.5961252424
 30
0.0
 11
5427.064442939
 21
7008.5961252424
 31
0.0
  0
LINE
  5
38C
330
1F
100
AcDbEntity
  8
0
  6
Continuous
 62
     8
370
    25
100
AcDbLine
 10
5141.064442939
 20
7008.5961252424
 30
0.0
 11
5080.0086047811
 21
7008.5961252424
 31
0.0
  0
LINE
  5
38D
330
1F
100
AcDbEntity
  8
0
  6
Continuous
 62
     8
370
    25
100
AcDbLine
 10
5607.5086047811
 20
6411.0961252424
 30
0.0
 11
5080.0086047811
 21
6411.0961252424
 31
0.0
  0
LINE
  5
38E
330
1F
100
AcDbEntity
  8
0
  6
Continuous
 62
     8
370
    25
100
AcDbLine
 10
5540.564442939
 20
6893.0690658978
 30
0.0
 11
5540.564442939
 21
6853.0690658978
 31
0.0
  0
LINE
  5
38F
330
1F
100
AcDbEntity
  8
0
  6
Continuous
 62
     8
370
    25
100
AcDbLine
 10
5535.564442939
 20
6893.0690658978
 30
0.0
 11
5535.564442939
 21
6853.0690658978
 31
0.0
  0
LINE
  5
390
330
1F
100
AcDbEntity
  8
0
  6
Continuous
 62
     8
370
    25
100
AcDbLine
 10
5542.6870844484
 20
6891.8898206148
 30
0.0
 11
5542.6870844484
 21
6854.2483111808
 31
0.0
  0
LINE
  5
391
330
1F
100
AcDbEntity
  8
0
  6
Continuous
 62
     8
370
    25
100
AcDbLine
 10
5523.064442939
 20
6760.3190658978
 30
0.0
 11
5523.064442939
 21
6851.5690658978
 31
0.0
  0
LINE
  5
392
330
1F
100
AcDbEntity
  8
0
  6
Continuous
 62
     8
370
    25
100
AcDbLine
 10
5545.564442939
 20
6840.5690658978
 30
0.0
 11
5545.564442939
 21
6859.9589552957
 31
0.0
  0
LINE
  5
393
330
1F
100
AcDbEntity
  8
0
  6
Continuous
 62
     8
370
    25
100
AcDbLine
 10
5545.564442939
 20
6886.1791764999
 30
0.0
 11
5545.564442939
 21
6905.5690658978
 31
0.0
  0
LINE
  5
394
330
1F
100
AcDbEntity
  8
0
  6
Continuous
 62
     8
370
    25
100
AcDbLine
 10
5182.8253093543
 20
6660.5690658978
 30
0.0
 11
5149.564442939
 21
6660.5690658978
 31
0.0
  0
LINE
  5
395
330
1F
100
AcDbEntity
  8
0
  6
Continuous
 62
     8
370
    25
100
AcDbLine
 10
5149.564442939
 20
6657.100329473
 30
0.0
 11
5182.163395203
 21
6657.100329473
 31
0.0
  0
LINE
  5
396
330
1F
100
AcDbEntity
  8
0
  6
Continuous
 62
     8
370
    25
100
AcDbLine
 10
5181.8793254299
 20
6654.8522834464
 30
0.0
 11
5150.970692939
 21
6654.8522834464
 31
0.0
  0
LINE
  5
397
330
1F
100
AcDbEntity
  8
0
  6
Continuous
 62
     8
370
    25
100
AcDbLine
 10
5289.564442939
 20
6660.5690658978
 30
0.0
 11
5249.564442939
 21
6660.5690658978
 31
0.0
  0
LINE
  5
398
330
1F
100
AcDbEntity
  8
0
  6
Continuous
 62
     8
370
    25
100
AcDbLine
 10
5249.564442939
 20
6657.100329473
 30
0.0
 11
5289.564442939
 21
6657.100329473
 31
0.0
  0
LINE
  5
399
330
1F
100
AcDbEntity
  8
0
  6
Continuous
 62
     8
370
    25
100
AcDbLine
 10
5288.158192939
 20
6654.8522834464
 30
0.0
 11
5250.970692939
 21
6654.8522834464
 31
0.0
  0
SPLINE
  5
39A
330
1F
100
AcDbEntity
  8
0
  6
Continuous
 62
     8
370
    25
100
AcDbSpline
210
0.0
220
0.0
230
1.0
 70
     8
 71
     3
 72
    12
 73
     8
 74
     0
 42
0.00000001
 43
0.00000001
 40
0.0
 40
0.0
 40
0.0
 40
0.0
 40
0.2146472268252765
 40
0.42867126709138
 40
0.6452969923854024
 40
0.8628948544302203
 40
1.0
 40
1.0
 40
1.0
 40
1.0
 10
5698.778888921603
 20
7906.720310643669
 30
0.0
 10
5700.786821927404
 20
7912.45693947969
 30
0.0
 10
5704.796858295273
 20
7923.91354196341
 30
0.0
 10
5711.278609126949
 20
7938.806586485885
 30
0.0
 10
5716.55752829734
 20
7949.815165729598
 30
0.0
 10
5719.698390894657
 20
7955.980987785265
 30
0.0
 10
5719.540163500508
 20
7955.942151370234
 30
0.0
 10
5719.47900306645
 20
7955.927139734522
 30
0.0
  0
SPLINE
  5
39B
330
1F
100
AcDbEntity
  8
0
  6
Continuous
 62
     8
370
    25
100
AcDbSpline
210
0.0
220
0.0
230
1.0
 70
     8
 71
     3
 72
    12
 73
     8
 74
     0
 42
0.00000001
 43
0.00000001
 40
0.0
 40
0.0
 40
0.0
 40
0.0
 40
0.2056417428120253
 40
0.4140208746952286
 40
0.6259018193522379
 40
0.8403298068397276
 40
1.0
 40
1.0
 40
1.0
 40
1.0
 10
5685.599637581366
 20
7853.048226113494
 30
0.0
 10
5685.764727916318
 20
7853.570385909753
 30
0.0
 10
5686.097106177397
 20
7854.6216562045
 30
0.0
 10
5687.684134563573
 20
7863.548614499493
 30
0.0
 10
5690.388723078135
 20
7876.809866244637
 30
0.0
 10
5694.161012518425
 20
7892.096484465688
 30
0.0
 10
5697.397015085156
 20
7902.344281063461
 30
0.0
 10
5698.778185006919
 20
7906.718180074145
 30
0.0
  0
LWPOLYLINE
  5
39C
330
1F
100
AcDbEntity
  8
0
  6
Continuous
 62
     8
370
    25
100
AcDbPolyline
 90
       10
 70
   128
 43
0.0
 10
5789.8458016968
 20
8166.0626446291
 10
5780.112171217
 20
8187.5170540167
 10
5770.3479484915
 20
8208.8845805347
 10
5760.9941843704
 20
8229.1881311261
 10
5752.5169509561
 20
8247.4056432976
 10
5745.3619959016
 20
8262.5710478441
 10
5739.9045623069
 20
8273.8842383123
 10
5736.4056640325
 20
8280.8050312195
 10
5734.9858491058
 20
8283.107277041
 10
5735.0000556369
 20
8283.058026294
  0
LINE
  5
39D
330
1F
100
AcDbEntity
  8
0
  6
Continuous
 62
     7
370
    25
100
AcDbLine
 10
3080.9867087735
 20
4665.1261366166
 30
0.0
 11
3080.9867087735
 21
4668.6261366166
 31
0.0
  0
LINE
  5
39E
330
1F
100
AcDbEntity
  8
0
  6
Continuous
 62
     7
370
    25
100
AcDbLine
 10
3037.7866104091
 20
4668.6261366166
 30
0.0
 11
3037.7866104091
 21
4665.1261366166
 31
0.0
  0
LINE
  5
39F
330
1F
100
AcDbEntity
  8
0
  6
Continuous
 62
     7
370
    25
100
AcDbLine
 10
3079.3866595913
 20
4555.1261366166
 30
0.0
 11
3079.3866595913
 21
4560.1261366166
 31
0.0
  0
LINE
  5
3A0
330
1F
100
AcDbEntity
  8
0
  6
Continuous
 62
     7
370
    25
100
AcDbLine
 10
3039.3866595913
 20
4560.1261366166
 30
0.0
 11
3039.3866595913
 21
4555.1261366166
 31
0.0
  0
ARC
  5
3A1
330
1F
100
AcDbEntity
  8
0
  6
Continuous
 62
     7
370
    25
100
AcDbCircle
 10
3076.8866595913
 20
4555.1261366166
 30
0.0
 40
2.500000000000155
100
AcDbArc
 50
301.8907918018
 51
0.0
  0
ARC
  5
3A2
330
1F
100
AcDbEntity
  8
0
  6
Continuous
 62
     7
370
    25
100
AcDbCircle
 10
3041.8866595913
 20
4555.1261366166
 30
0.0
 40
2.500000000000395
100
AcDbArc
 50
180.0
 51
238.1092081982
  0
ARC
  5
3A3
330
1F
100
AcDbEntity
  8
0
  6
Continuous
 62
     7
370
    25
100
AcDbCircle
 10
3076.8866595913
 20
4560.1261366166
 30
0.0
 40
2.5
100
AcDbArc
 50
0.0
 51
90.0
  0
ARC
  5
3A4
330
1F
100
AcDbEntity
  8
0
  6
Continuous
 62
     7
370
    25
100
AcDbCircle
 10
3041.8866595913
 20
4560.1261366166
 30
0.0
 40
2.5
100
AcDbArc
 50
90.0
 51
180.0
  0
ARC
  5
3A5
330
1F
100
AcDbEntity
  8
0
  6
Continuous
 62
     7
370
    25
100
AcDbCircle
 10
3059.3866595913
 20
4583.2511366166
 30
0.0
 40
35.6249999999992
100
AcDbArc
 50
277.4380473866
 51
301.8907918018
  0
ARC
  5
3A6
330
1F
100
AcDbEntity
  8
0
  6
Continuous
 62
     7
370
    25
100
AcDbCircle
 10
3059.3866595913
 20
4583.2511366166
 30
0.0
 40
35.62500000000087
100
AcDbArc
 50
238.1092081982
 51
262.5619526134
  0
LINE
  5
3A7
330
1F
100
AcDbEntity
  8
0
  6
Continuous
 62
     7
370
    25
100
AcDbLine
 10
3203.1366595913
 20
4665.1261366166
 30
0.0
 11
3203.1366595913
 21
4668.6261366166
 31
0.0
  0
LINE
  5
3A8
330
1F
100
AcDbEntity
  8
0
  6
Continuous
 62
     7
370
    25
100
AcDbLine
 10
3154.1366595913
 20
4668.6261366166
 30
0.0
 11
3154.1366595913
 21
4665.1261366166
 31
0.0
  0
LINE
  5
3A9
330
1F
100
AcDbEntity
  8
0
  6
Continuous
 62
     7
370
    25
100
AcDbLine
 10
3106.4284441101
 20
4631.9546605272
 30
0.0
 11
3106.4284441101
 21
4608.297612706
 31
0.0
  0
LINE
  5
3AA
330
1F
100
AcDbEntity
  8
0
  6
Continuous
 62
     7
370
    25
100
AcDbLine
 10
3024.3866595913
 20
4684.6261366166
 30
0.0
 11
3024.3866595913
 21
4668.6261366166
 31
0.0
  0
LINE
  5
3AB
330
1F
100
AcDbEntity
  8
0
  6
Continuous
 62
     7
370
    25
100
AcDbLine
 10
3065.6366595913
 20
4665.1261366166
 30
0.0
 11
3065.6366595913
 21
4668.6261366166
 31
0.0
  0
LINE
  5
3AC
330
1F
100
AcDbEntity
  8
0
  6
Continuous
 62
     7
370
    25
100
AcDbLine
 10
3053.1366595913
 20
4668.6261366166
 30
0.0
 11
3053.1366595913
 21
4665.1261366166
 31
0.0
  0
LINE
  5
3AD
330
1F
100
AcDbEntity
  8
0
  6
Continuous
 62
     7
370
    25
100
AcDbLine
 10
3146.1366595913
 20
4562.6261366166
 30
0.0
 11
3146.1366595913
 21
4550.1261366166
 31
0.0
  0
ARC
  5
3AE
330
1F
100
AcDbEntity
  8
0
  6
Continuous
 62
     7
370
    25
100
AcDbCircle
 10
3148.6366595913
 20
4550.1261366166
 30
0.0
 40
2.5
100
AcDbArc
 50
180.0
 51
270.0
  0
LINE
  5
3AF
330
1F
100
AcDbEntity
  8
0
  6
Continuous
 62
     7
370
    25
100
AcDbLine
 10
3037.8866595913
 20
4665.1261366166
 30
0.0
 11
3037.8866595913
 21
4562.6261366166
 31
0.0
  0
LINE
  5
3B0
330
1F
100
AcDbEntity
  8
0
  6
Continuous
 62
     7
370
    25
100
AcDbLine
 10
3091.1366595913
 20
4665.1261366166
 30
0.0
 11
3091.1366595913
 21
4668.6261366166
 31
0.0
  0
LINE
  5
3B1
330
1F
100
AcDbEntity
  8
0
  6
Continuous
 62
     7
370
    25
100
AcDbLine
 10
2979.1366595913
 20
4684.6261366166
 30
0.0
 11
2979.1366595913
 21
4683.6261366166
 31
0.0
  0
ARC
  5
3B2
330
1F
100
AcDbEntity
  8
0
  6
Continuous
 62
     7
370
    25
100
AcDbCircle
 10
3023.6366595913
 20
4739.7551688746
 30
0.0
 40
71.62903225806537
100
AcDbArc
 50
231.592052989
 51
245.239598896
  0
LINE
  5
3B3
330
1F
100
AcDbEntity
  8
0
  6
Continuous
 62
     7
370
    25
100
AcDbLine
 10
2994.6366595913
 20
4674.7111971153
 30
0.0
 11
2994.6366595913
 21
4674.2592280674
 31
0.0
  0
ARC
  5
3B4
330
1F
100
AcDbEntity
  8
0
  6
Continuous
 62
     7
370
    25
100
AcDbCircle
 10
3023.6366595913
 20
4739.7551688746
 30
0.0
 40
71.629032258066
100
AcDbArc
 50
246.1174094853
 51
276.7737793216
  0
LINE
  5
3B5
330
1F
100
AcDbEntity
  8
0
  6
Continuous
 62
     7
370
    25
100
AcDbLine
 10
2979.1366595913
 20
4684.6261366166
 30
0.0
 11
2979.1366595913
 21
4683.6261366166
 31
0.0
  0
LINE
  5
3B6
330
1F
100
AcDbEntity
  8
0
  6
Continuous
 62
     7
370
    25
100
AcDbLine
 10
2994.6366595913
 20
4674.7111971153
 30
0.0
 11
2994.6366595913
 21
4674.2592280674
 31
0.0
  0
SPLINE
  5
3B7
330
1F
100
AcDbEntity
  8
0
  6
Continuous
 62
     7
370
    25
100
AcDbSpline
210
0.0
220
0.0
230
1.0
 70
     8
 71
     3
 72
    21
 73
    17
 74
     0
 42
0.00000001
 43
0.00000001
 40
0.0
 40
0.0
 40
0.0
 40
0.0
 40
0.0827134526770399
 40
0.1576284554210551
 40
0.2374607169347128
 40
0.3061324270363063
 40
0.3634599956251727
 40
0.4093932744235287
 40
0.4502153485187101
 40
0.5076722531464875
 40
0.5787431963033393
 40
0.6634862927293892
 40
0.7360170351461333
 40
0.8162913158107633
 40
0.9043224025934025
 40
1.0
 40
1.0
 40
1.0
 40
1.0
 10
3452.680522030151
 20
3976.071344419866
 30
0.0
 10
3452.93690798456
 20
3982.916381660897
 30
0.0
 10
3453.425507126262
 20
3995.9610873609
 30
0.0
 10
3454.099721343296
 20
4019.062803077731
 30
0.0
 10
3454.699859657424
 20
4042.346821574059
 30
0.0
 10
3455.227069824365
 20
4064.971936306048
 30
0.0
 10
3455.655067575554
 20
4084.445463038948
 30
0.0
 10
3456.006769007269
 20
4101.063996484528
 30
0.0
 10
3456.354659788592
 20
4117.888501020604
 30
0.0
 10
3456.756443415022
 20
4137.877632565087
 30
0.0
 10
3457.254858524043
 20
4163.26414152316
 30
0.0
 10
3457.781727052564
 20
4190.535407122233
 30
0.0
 10
3458.327003303418
 20
4218.804917019392
 30
0.0
 10
3458.878966721509
 20
4247.200200740466
 30
0.0
 10
3459.485804728519
 20
4277.944823161214
 30
0.0
 10
3459.91944436375
 20
4298.461512019082
 30
0.0
 10
3460.145288877429
 20
4309.146839745002
 30
0.0
  0
SPLINE
  5
3B8
330
1F
100
AcDbEntity
  8
0
  6
Continuous
 62
     7
370
    25
100
AcDbSpline
210
0.0
220
0.0
230
1.0
 70
     8
 71
     3
 72
    18
 73
    14
 74
     0
 42
0.00000001
 43
0.00000001
 40
0.0
 40
0.0
 40
0.0
 40
0.0
 40
0.0940128936791707
 40
0.1862009196636781
 40
0.2764416054563547
 40
0.4081426222042407
 40
0.5354710451729974
 40
0.6179120178086758
 40
0.6983273188280634
 40
0.7767668486424862
 40
0.853137016987904
 40
0.9274476741511805
 40
1.0
 40
1.0
 40
1.0
 40
1.0
 10
3210.334330743226
 20
4305.372225306001
 30
0.0
 10
3210.874233425
 20
4294.876938896458
 30
0.0
 10
3211.943558832837
 20
4274.090088230425
 30
0.0
 10
3213.553423927773
 20
4241.909485776613
 30
0.0
 10
3215.394508965877
 20
4204.864415710312
 30
0.0
 10
3217.457294800547
 20
4163.155775733645
 30
0.0
 10
3219.48398662443
 20
4122.503009323206
 30
0.0
 10
3221.204870330179
 20
4088.640405887708
 30
0.0
 10
3222.632765872825
 20
4061.226811142913
 30
0.0
 10
3224.015639638289
 20
4035.542165069511
 30
0.0
 10
3225.349620233609
 20
4011.984929641711
 30
0.0
 10
3226.635061285404
 20
3990.63339561083
 30
0.0
 10
3227.454193534224
 20
3978.612702412441
 30
0.0
 10
3227.85885608847
 20
3972.674315271099
 30
0.0
  0
SPLINE
  5
3B9
330
1F
100
AcDbEntity
  8
0
  6
Continuous
 62
     7
370
    25
100
AcDbSpline
210
0.0
220
0.0
230
1.0
 70
     8
 71
     3
 72
    11
 73
     7
 74
     0
 42
0.00000001
 43
0.00000001
 40
0.0
 40
0.0
 40
0.0
 40
0.0
 40
0.2101785377147876
 40
0.4614809816843529
 40
0.7145245942437396
 40
1.0
 40
1.0
 40
1.0
 40
1.0
 10
3210.000267275002
 20
4317.880969172219
 30
0.0
 10
3210.002944441648
 20
4317.835854249249
 30
0.0
 10
3210.008822594125
 20
4317.736797137297
 30
0.0
 10
3210.107065927723
 20
4315.272317448441
 30
0.0
 10
3210.214703093758
 20
4310.905005507965
 30
0.0
 10
3210.228532067791
 20
4308.25913767165
 30
0.0
 10
3210.235862973179
 20
4306.856531322645
 30
0.0
  0
SPLINE
  5
3BA
330
1F
100
AcDbEntity
  8
0
  6
Continuous
 62
     7
370
    25
100
AcDbSpline
210
0.0
220
0.0
230
1.0
 70
     8
 71
     3
 72
    11
 73
     7
 74
     0
 42
0.00000001
 43
0.00000001
 40
0.0
 40
0.0
 40
0.0
 40
0.0
 40
0.2878590146670422
 40
0.5419841450211503
 40
0.7941323552033129
 40
1.0
 40
1.0
 40
1.0
 40
1.0
 10
3460.198903685025
 20
4310.819659217625
 30
0.0
 10
3460.166323090035
 20
4312.194696733446
 30
0.0
 10
3460.104979984485
 20
4314.783632616679
 30
0.0
 10
3460.075622538912
 20
4319.133660499283
 30
0.0
 10
3460.098569748825
 20
4321.553762775456
 30
0.0
 10
3460.100590070484
 20
4321.628214819884
 30
0.0
 10
3460.101498158834
 20
4321.661679309967
 30
0.0
  0
SPLINE
  5
3BB
330
1F
100
AcDbEntity
  8
0
  6
Continuous
 62
     7
370
    25
100
AcDbSpline
210
0.0
220
0.0
230
1.0
 70
     8
 71
     3
 72
    10
 73
     6
 74
     0
 42
0.00000001
 43
0.00000001
 40
0.0
 40
0.0
 40
0.0
 40
0.0
 40
0.3743829259552849
 40
0.8656920921334635
 40
1.0
 40
1.0
 40
1.0
 40
1.0
 10
3470.313350244731
 20
4463.400062068554
 30
0.0
 10
3470.472336141532
 20
4463.775779072829
 30
0.0
 10
3470.839961970809
 20
4464.644555977255
 30
0.0
 10
3471.103414385879
 20
4464.889528585042
 30
0.0
 10
3471.206286658095
 20
4464.954023122421
 30
0.0
 10
3471.228371348927
 20
4464.967868854488
 30
0.0
  0
SPLINE
  5
3BC
330
1F
100
AcDbEntity
  8
0
  6
Continuous
 62
     7
370
    25
100
AcDbSpline
210
0.0
220
0.0
230
1.0
 70
     8
 71
     3
 72
    10
 73
     6
 74
     0
 42
0.00000001
 43
0.00000001
 40
0.0
 40
0.0
 40
0.0
 40
0.0
 40
0.3943598808222014
 40
0.8892762420245722
 40
1.0
 40
1.0
 40
1.0
 40
1.0
 10
3194.57176193302
 20
4460.76106508316
 30
0.0
 10
3194.667424400046
 20
4460.658310919627
 30
0.0
 10
3194.883141980149
 20
4460.426601659018
 30
0.0
 10
3195.108658488841
 20
4460.299094637934
 30
0.0
 10
3195.465737088702
 20
4459.331293927269
 30
0.0
 10
3195.531018570587
 20
4459.154359592401
 30
0.0
  0
CIRCLE
  5
3BD
330
1F
100
AcDbEntity
  8
0
  6
Continuous
 62
     7
370
    25
100
AcDbCircle
 10
3789.961443858
 20
4751.9319747744
 30
0.0
 40
31.25000000000074
  0
ARC
  5
3BE
330
1F
100
AcDbEntity
  8
0
  6
Continuous
 62
     7
370
    25
100
AcDbCircle
 10
3789.961443858
 20
4751.9319747744
 30
0.0
 40
263.7500000000005
100
AcDbArc
 50
174.4195647402
 51
5.5804352598
  0
LINE
  5
3BF
330
1F
100
AcDbEntity
  8
0
  6
Continuous
 62
     7
370
    25
100
AcDbLine
 10
3527.461443858
 20
5028.2489747744
 30
0.0
 11
3527.461443858
 21
4751.9319747744
 31
0.0
  0
LINE
  5
3C0
330
1F
100
AcDbEntity
  8
0
  6
Continuous
 62
     7
370
    25
100
AcDbLine
 10
3527.461443858
 20
5028.2489747744
 30
0.0
 11
4052.461443858
 21
5028.2489747744
 31
0.0
  0
ARC
  5
3C1
330
1F
100
AcDbEntity
  8
0
  6
Continuous
 62
     7
370
    25
100
AcDbCircle
 10
3789.961443858
 20
4751.9319747744
 30
0.0
 40
262.5000000000005
100
AcDbArc
 50
180.0
 51
0.0
  0
CIRCLE
  5
3C2
330
1F
100
AcDbEntity
  8
0
  6
Continuous
 62
     7
370
    25
100
AcDbCircle
 10
3789.961443858
 20
4751.9319747744
 30
0.0
 40
40.00000000000091
  0
LINE
  5
3C3
330
1F
100
AcDbEntity
  8
0
  6
Continuous
 62
     7
370
    25
100
AcDbLine
 10
4052.461443858
 20
5028.2489747744
 30
0.0
 11
4052.461443858
 21
4751.9319747744
 31
0.0
  0
LINE
  5
3C4
330
1F
100
AcDbEntity
  8
0
  6
Continuous
 62
     7
370
    25
100
AcDbLine
 10
3527.461443858
 20
5039.4319747744
 30
0.0
 11
3527.461443858
 21
5028.2489747744
 31
0.0
  0
LINE
  5
3C5
330
1F
100
AcDbEntity
  8
0
  6
Continuous
 62
     7
370
    25
100
AcDbLine
 10
3527.461443858
 20
5039.4319747744
 30
0.0
 11
4052.461443858
 21
5039.4319747744
 31
0.0
  0
LINE
  5
3C6
330
1F
100
AcDbEntity
  8
0
  6
Continuous
 62
     7
370
    25
100
AcDbLine
 10
4052.461443858
 20
5039.4319747744
 30
0.0
 11
4052.461443858
 21
5028.2489747744
 31
0.0
  0
LINE
  5
3C7
330
1F
100
AcDbEntity
  8
0
  6
Continuous
 62
     7
370
    25
100
AcDbLine
 10
3037.7866104091
 20
4665.1261366166
 30
0.0
 11
3051.8866595913
 21
4665.1261366166
 31
0.0
  0
ARC
  5
3C8
330
1F
100
AcDbEntity
  8
0
  6
Continuous
 62
     7
370
    25
100
AcDbCircle
 10
3069.8906854974
 20
4559.7328982982
 30
0.0
 40
9.84172441109677
100
AcDbArc
 50
262.0851454827
 51
277.9148545173
  0
ARC
  5
3C9
330
1F
100
AcDbEntity
  8
0
  6
Continuous
 62
     7
370
    25
100
AcDbCircle
 10
3057.9226099901
 20
4573.5737815376
 30
0.0
 40
25.86632432877924
100
AcDbArc
 50
274.9004764201
 51
294.2234485089
  0
ARC
  5
3CA
330
1F
100
AcDbEntity
  8
0
  6
Continuous
 62
     7
370
    25
100
AcDbCircle
 10
3061.8928628207
 20
4559.9965032647
 30
0.0
 40
12.32093557128494
100
AcDbArc
 50
234.3474136846
 51
261.7845197171
  0
ARC
  5
3CB
330
1F
100
AcDbEntity
  8
0
  6
Continuous
 62
     7
370
    25
100
AcDbCircle
 10
3052.6105663391
 20
4573.4640830176
 30
0.0
 40
23.57295261907804
100
AcDbArc
 50
264.8870565456
 51
275.1129434544
  0
ARC
  5
3CC
330
1F
100
AcDbEntity
  8
0
  6
Continuous
 62
     7
370
    25
100
AcDbCircle
 10
3057.6912524582
 20
4559.9965032647
 30
0.0
 40
12.32093557127284
100
AcDbArc
 50
234.3474136846
 51
261.7845197171
  0
ARC
  5
3CD
330
1F
100
AcDbEntity
  8
0
  6
Continuous
 62
     7
370
    25
100
AcDbCircle
 10
3060.7619951627
 20
4573.0343086402
 30
0.0
 40
25.3212803541626
100
AcDbArc
 50
259.0003887853
 51
265.1952497103
  0
LWPOLYLINE
  5
3CE
330
1F
100
AcDbEntity
  8
0
  6
Continuous
 62
     7
370
    25
100
AcDbPolyline
 90
        3
 70
   128
 43
0.0
 10
3058.6410730605
 20
4547.8020093354
 10
3059.3342992679
 20
4547.9154432011
 10
3059.3866595913
 20
4547.9259061449
  0
ARC
  5
3CF
330
1F
100
AcDbEntity
  8
0
  6
Continuous
 62
     7
370
    25
100
AcDbCircle
 10
3060.633047291
 20
4573.5737815376
 30
0.0
 40
25.86632432878196
100
AcDbArc
 50
274.9004764201
 51
294.2234485089
  0
LINE
  5
3D0
330
1F
100
AcDbEntity
  8
0
  6
Continuous
 62
     7
370
    25
100
AcDbLine
 10
3055.9306357596
 20
4547.8020093354
 30
0.0
 11
3055.9306357596
 21
4549.2245034175
 31
0.0
  0
LINE
  5
3D1
330
1F
100
AcDbEntity
  8
0
  6
Continuous
 62
     7
370
    25
100
AcDbLine
 10
3062.842683423
 20
4547.8020093354
 30
0.0
 11
3062.842683423
 21
4548.1782187407
 31
0.0
  0
LINE
  5
3D2
330
1F
100
AcDbEntity
  8
0
  6
Continuous
 62
     7
370
    25
100
AcDbLine
 10
3058.6410730605
 20
4548.1040208582
 30
0.0
 11
3058.6410730605
 21
4547.8020093354
 31
0.0
  0
CIRCLE
  5
3D3
330
1F
100
AcDbEntity
  8
0
  6
Continuous
 62
     7
370
    25
100
AcDbCircle
 10
3102.3866595913
 20
4620.1261366166
 30
0.0
 40
20.25
  0
CIRCLE
  5
3D4
330
1F
100
AcDbEntity
  8
0
  6
Continuous
 62
     7
370
    25
100
AcDbCircle
 10
3102.3866595913
 20
4620.1261366166
 30
0.0
 40
12.5
  0
LINE
  5
3D5
330
1F
100
AcDbEntity
  8
0
  6
Continuous
 62
     7
370
    25
100
AcDbLine
 10
3076.1366595913
 20
4620.1261366166
 30
0.0
 11
3082.1366595913
 21
4620.1261366166
 31
0.0
  0
LINE
  5
3D6
330
1F
100
AcDbEntity
  8
0
  6
Continuous
 62
     7
370
    25
100
AcDbLine
 10
3076.1366595913
 20
4665.1261366166
 30
0.0
 11
3242.3297465799
 21
4665.1261366166
 31
0.0
  0
LINE
  5
3D7
330
1F
100
AcDbEntity
  8
0
  6
Continuous
 62
     7
370
    25
100
AcDbLine
 10
3122.6366595913
 20
4620.1261366166
 30
0.0
 11
3206.7151972001
 21
4620.1261366166
 31
0.0
  0
LINE
  5
3D8
330
1F
100
AcDbEntity
  8
0
  6
Continuous
 62
     7
370
    25
100
AcDbLine
 10
3076.1366595913
 20
4665.1261366166
 30
0.0
 11
3076.1366595913
 21
4620.1261366166
 31
0.0
  0
LINE
  5
3D9
330
1F
100
AcDbEntity
  8
0
  6
Continuous
 62
     7
370
    25
100
AcDbLine
 10
3246.4654795037
 20
4668.6261366166
 30
0.0
 11
3048.3866595913
 21
4668.6261366166
 31
0.0
  0
LINE
  5
3DA
330
1F
100
AcDbEntity
  8
0
  6
Continuous
 62
     7
370
    25
100
AcDbLine
 10
3048.3866595913
 20
4684.6261366166
 30
0.0
 11
3048.3866595913
 21
4668.6261366166
 31
0.0
  0
LINE
  5
3DB
330
1F
100
AcDbEntity
  8
0
  6
Continuous
 62
     7
370
    25
100
AcDbLine
 10
3048.3866595913
 20
4668.6261366166
 30
0.0
 11
3038.3866595913
 21
4668.6261366166
 31
0.0
  0
LINE
  5
3DC
330
1F
100
AcDbEntity
  8
0
  6
Continuous
 62
     7
370
    25
100
AcDbLine
 10
3038.3866595913
 20
4684.6261366166
 30
0.0
 11
3038.3866595913
 21
4668.6261366166
 31
0.0
  0
LINE
  5
3DD
330
1F
100
AcDbEntity
  8
0
  6
Continuous
 62
     7
370
    25
100
AcDbLine
 10
3038.3866595913
 20
4668.6261366166
 30
0.0
 11
3024.3866595913
 21
4668.6261366166
 31
0.0
  0
LINE
  5
3DE
330
1F
100
AcDbEntity
  8
0
  6
Continuous
 62
     7
370
    25
100
AcDbLine
 10
3071.8866595913
 20
4665.1261366166
 30
0.0
 11
3071.8866595913
 21
4572.6261366166
 31
0.0
  0
LINE
  5
3DF
330
1F
100
AcDbEntity
  8
0
  6
Continuous
 62
     7
370
    25
100
AcDbLine
 10
3071.8866595913
 20
4665.1261366166
 30
0.0
 11
3076.1366595913
 21
4665.1261366166
 31
0.0
  0
LINE
  5
3E0
330
1F
100
AcDbEntity
  8
0
  6
Continuous
 62
     7
370
    25
100
AcDbLine
 10
3051.8866595913
 20
4665.1261366166
 30
0.0
 11
3071.8866595913
 21
4665.1261366166
 31
0.0
  0
LINE
  5
3E1
330
1F
100
AcDbEntity
  8
0
  6
Continuous
 62
     7
370
    25
100
AcDbLine
 10
3051.8866595913
 20
4572.6261366166
 30
0.0
 11
3071.8866595913
 21
4572.6261366166
 31
0.0
  0
LINE
  5
3E2
330
1F
100
AcDbEntity
  8
0
  6
Continuous
 62
     7
370
    25
100
AcDbLine
 10
3051.8866595913
 20
4572.6261366166
 30
0.0
 11
3051.8866595913
 21
4665.1261366166
 31
0.0
  0
LINE
  5
3E3
330
1F
100
AcDbEntity
  8
0
  6
Continuous
 62
     7
370
    25
100
AcDbLine
 10
3071.8866595913
 20
4562.6261366166
 30
0.0
 11
3061.8866595913
 21
4562.6261366166
 31
0.0
  0
ARC
  5
3E4
330
1F
100
AcDbEntity
  8
0
  6
Continuous
 62
     7
370
    25
100
AcDbCircle
 10
3061.8866595913
 20
4572.6261366166
 30
0.0
 40
10.0
100
AcDbArc
 50
180.0
 51
270.0
  0
LINE
  5
3E5
330
1F
100
AcDbEntity
  8
0
  6
Continuous
 62
     7
370
    25
100
AcDbLine
 10
3071.8866595913
 20
4562.6261366166
 30
0.0
 11
3071.8866595913
 21
4572.6261366166
 31
0.0
  0
LINE
  5
3E6
330
1F
100
AcDbEntity
  8
0
  6
Continuous
 62
     7
370
    25
100
AcDbLine
 10
3192.025853441
 20
4562.6261366166
 30
0.0
 11
3183.6366595913
 21
4562.6261366166
 31
0.0
  0
LINE
  5
3E7
330
1F
100
AcDbEntity
  8
0
  6
Continuous
 62
     7
370
    25
100
AcDbLine
 10
3183.6366595913
 20
4562.6261366166
 30
0.0
 11
3173.6366595913
 21
4562.6261366166
 31
0.0
  0
LINE
  5
3E8
330
1F
100
AcDbEntity
  8
0
  6
Continuous
 62
     7
370
    25
100
AcDbLine
 10
3173.6366595913
 20
4562.6261366166
 30
0.0
 11
3071.8866595913
 21
4562.6261366166
 31
0.0
  0
LINE
  5
3E9
330
1F
100
AcDbEntity
  8
0
  6
Continuous
 62
     7
370
    25
100
AcDbLine
 10
3183.6366595913
 20
4557.6261366166
 30
0.0
 11
3183.6366595913
 21
4562.6261366166
 31
0.0
  0
LINE
  5
3EA
330
1F
100
AcDbEntity
  8
0
  6
Continuous
 62
     7
370
    25
100
AcDbLine
 10
3183.6366595913
 20
4557.6261366166
 30
0.0
 11
3173.6366595913
 21
4557.6261366166
 31
0.0
  0
LINE
  5
3EB
330
1F
100
AcDbEntity
  8
0
  6
Continuous
 62
     7
370
    25
100
AcDbLine
 10
3173.6366595913
 20
4557.6261366166
 30
0.0
 11
3173.6366595913
 21
4562.6261366166
 31
0.0
  0
LINE
  5
3EC
330
1F
100
AcDbEntity
  8
0
  6
Continuous
 62
     7
370
    25
100
AcDbLine
 10
3191.8361908863
 20
4547.6261366166
 30
0.0
 11
3148.6366595913
 21
4547.6261366166
 31
0.0
  0
LINE
  5
3ED
330
1F
100
AcDbEntity
  8
0
  6
Continuous
 62
     7
370
    25
100
AcDbLine
 10
3037.8866595913
 20
4562.6261366166
 30
0.0
 11
3061.8866595913
 21
4562.6261366166
 31
0.0
  0
LINE
  5
3EE
330
1F
100
AcDbEntity
  8
0
  6
Continuous
 62
     7
370
    25
100
AcDbLine
 10
2979.1366595913
 20
4683.6261366166
 30
0.0
 11
3024.3866595913
 21
4683.6261366166
 31
0.0
  0
LINE
  5
3EF
330
1F
100
AcDbEntity
  8
0
  6
Continuous
 62
     7
370
    25
100
AcDbLine
 10
2993.6366595913
 20
4674.7111971153
 30
0.0
 11
3024.3866595913
 21
4674.7111971153
 31
0.0
  0
LINE
  5
3F0
330
1F
100
AcDbEntity
  8
0
  6
Continuous
 62
     7
370
    25
100
AcDbLine
 10
2994.6366595913
 20
4674.2592280674
 30
0.0
 11
3024.3866595913
 21
4674.2592280674
 31
0.0
  0
LINE
  5
3F1
330
1F
100
AcDbEntity
  8
0
  6
Continuous
 62
     7
370
    25
100
AcDbLine
 10
2973.6366595913
 20
4744.6261366166
 30
0.0
 11
3323.6366595913
 21
4744.6261366166
 31
0.0
  0
LINE
  5
3F2
330
1F
100
AcDbEntity
  8
0
  6
Continuous
 62
     7
370
    25
100
AcDbLine
 10
2973.6366595913
 20
4744.6261366166
 30
0.0
 11
2973.6366595913
 21
4695.6616705225
 31
0.0
  0
LINE
  5
3F3
330
1F
100
AcDbEntity
  8
0
  6
Continuous
 62
     7
370
    25
100
AcDbLine
 10
2943.6366595913
 20
4695.6616705225
 30
0.0
 11
2973.6366595913
 21
4695.6616705225
 31
0.0
  0
LINE
  5
3F4
330
1F
100
AcDbEntity
  8
0
  6
Continuous
 62
     7
370
    25
100
AcDbLine
 10
2943.6366595913
 20
4695.6616705225
 30
0.0
 11
2943.6366595913
 21
4744.6261366166
 31
0.0
  0
LINE
  5
3F5
330
1F
100
AcDbEntity
  8
0
  6
Continuous
 62
     7
370
    25
100
AcDbLine
 10
2943.6366595913
 20
4744.6261366166
 30
0.0
 11
2973.6366595913
 21
4744.6261366166
 31
0.0
  0
LINE
  5
3F6
330
1F
100
AcDbEntity
  8
0
  6
Continuous
 62
     7
370
    25
100
AcDbLine
 10
3353.6366595913
 20
4744.6261366166
 30
0.0
 11
3353.6366595913
 21
4695.6616705225
 31
0.0
  0
LINE
  5
3F7
330
1F
100
AcDbEntity
  8
0
  6
Continuous
 62
     7
370
    25
100
AcDbLine
 10
3323.6366595913
 20
4744.6261366166
 30
0.0
 11
3353.6366595913
 21
4744.6261366166
 31
0.0
  0
LINE
  5
3F8
330
1F
100
AcDbEntity
  8
0
  6
Continuous
 62
     7
370
    25
100
AcDbLine
 10
2973.6366595913
 20
4693.8939035695
 30
0.0
 11
2973.6366595913
 21
4695.6616705225
 31
0.0
  0
LINE
  5
3F9
330
1F
100
AcDbEntity
  8
0
  6
Continuous
 62
     7
370
    25
100
AcDbLine
 10
2973.6366595913
 20
4693.8939035695
 30
0.0
 11
2944.3688926383
 21
4693.8939035695
 31
0.0
  0
ARC
  5
3FA
330
1F
100
AcDbEntity
  8
0
  6
Continuous
 62
     7
370
    25
100
AcDbCircle
 10
2946.1366595913
 20
4695.6616705225
 30
0.0
 40
2.500000000000455
100
AcDbArc
 50
180.0
 51
225.0
  0
LINE
  5
3FB
330
1F
100
AcDbEntity
  8
0
  6
Continuous
 62
     7
370
    25
100
AcDbLine
 10
2973.6366595913
 20
4685.3583696636
 30
0.0
 11
2973.6366595913
 21
4693.8939035695
 31
0.0
  0
LINE
  5
3FC
330
1F
100
AcDbEntity
  8
0
  6
Continuous
 62
     7
370
    25
100
AcDbLine
 10
2952.9044265443
 20
4685.3583696636
 30
0.0
 11
2973.6366595913
 21
4685.3583696636
 31
0.0
  0
LINE
  5
3FD
330
1F
100
AcDbEntity
  8
0
  6
Continuous
 62
     7
370
    25
100
AcDbLine
 10
2952.9044265443
 20
4685.3583696636
 30
0.0
 11
2944.3688926383
 21
4693.8939035695
 31
0.0
  0
LINE
  5
3FE
330
1F
100
AcDbEntity
  8
0
  6
Continuous
 62
     7
370
    25
100
AcDbLine
 10
2973.6366595913
 20
4685.3583696636
 30
0.0
 11
2973.6366595913
 21
4684.6261366166
 31
0.0
  0
LINE
  5
3FF
330
1F
100
AcDbEntity
  8
0
  6
Continuous
 62
     7
370
    25
100
AcDbLine
 10
2973.6366595913
 20
4684.6261366166
 30
0.0
 11
2954.6721934972
 21
4684.6261366166
 31
0.0
  0
ARC
  5
400
330
1F
100
AcDbEntity
  8
0
  6
Continuous
 62
     7
370
    25
100
AcDbCircle
 10
2954.6721934972
 20
4687.1261366166
 30
0.0
 40
2.5
100
AcDbArc
 50
225.0
 51
270.0
  0
LINE
  5
401
330
1F
100
AcDbEntity
  8
0
  6
Continuous
 62
     7
370
    25
100
AcDbLine
 10
3272.4644549326
 20
4684.6261366166
 30
0.0
 11
2973.6366595913
 21
4684.6261366166
 31
0.0
  0
LINE
  5
402
330
1F
100
AcDbEntity
  8
0
  6
Continuous
 62
     7
370
    25
100
AcDbLine
 10
2973.6366595913
 20
4954.6261366166
 30
0.0
 11
2973.6366595913
 21
4744.6261366166
 31
0.0
  0
LINE
  5
403
330
1F
100
AcDbEntity
  8
0
  6
Continuous
 62
     7
370
    25
100
AcDbLine
 10
3323.6366595913
 20
4954.6261366166
 30
0.0
 11
2973.6366595913
 21
4954.6261366166
 31
0.0
  0
LINE
  5
404
330
1F
100
AcDbEntity
  8
0
  6
Continuous
 62
     7
370
    25
100
AcDbLine
 10
3323.6366595913
 20
4744.6261366166
 30
0.0
 11
3323.6366595913
 21
4954.6261366166
 31
0.0
  0
LINE
  5
405
330
1F
100
AcDbEntity
  8
0
  6
Continuous
 62
     7
370
    25
100
AcDbLine
 10
2943.6366595913
 20
4744.6261366166
 30
0.0
 11
2943.6366595913
 21
4954.6261366166
 31
0.0
  0
LINE
  5
406
330
1F
100
AcDbEntity
  8
0
  6
Continuous
 62
     7
370
    25
100
AcDbLine
 10
2943.6366595913
 20
4954.6261366166
 30
0.0
 11
2973.6366595913
 21
4954.6261366166
 31
0.0
  0
LINE
  5
407
330
1F
100
AcDbEntity
  8
0
  6
Continuous
 62
     7
370
    25
100
AcDbLine
 10
3353.6366595913
 20
4954.6261366166
 30
0.0
 11
3353.6366595913
 21
4744.6261366166
 31
0.0
  0
LINE
  5
408
330
1F
100
AcDbEntity
  8
0
  6
Continuous
 62
     7
370
    25
100
AcDbLine
 10
3323.6366595913
 20
4954.6261366166
 30
0.0
 11
3353.6366595913
 21
4954.6261366166
 31
0.0
  0
LINE
  5
409
330
1F
100
AcDbEntity
  8
0
  6
Continuous
 62
     7
370
    25
100
AcDbLine
 10
3210.295269145
 20
4305.8447778587
 30
0.0
 11
3210.4418995455
 21
4306.8451231151
 31
0.0
  0
LINE
  5
40A
330
1F
100
AcDbEntity
  8
0
  6
Continuous
 62
     7
370
    25
100
AcDbLine
 10
3459.9607341244
 20
4310.7990123516
 30
0.0
 11
3460.1700554752
 21
4309.6203567356
 31
0.0
  0
LWPOLYLINE
  5
40B
330
1F
100
AcDbEntity
  8
0
  6
Continuous
 62
     7
370
    25
100
AcDbPolyline
 90
       18
 70
   128
 43
0.0
 10
3452.3500381086
 20
3976.0979325114
 10
3450.8479764986
 20
3959.3264848582
 10
3444.7464277554
 20
3939.4005430293
 10
3434.6276270974
 20
3920.9687621598
 10
3420.8804343594
 20
3904.739465252
 10
3404.0331464486
 20
3891.3363350844
 10
3384.7331951915
 20
3881.2744464328
 10
3363.7222668913
 20
3874.9404720355
 10
3341.8077997395
 20
3872.5778229762
 10
3319.8319544191
 20
3874.2772945335
 10
3298.6392503414
 20
3879.9735769683
 10
3279.0441112392
 20
3889.4477653413
 10
3261.799567319
 20
3902.3357719065
 10
3247.568316733
 20
3918.1423177992
 10
3236.8972584601
 20
3936.2599663252
 10
3230.1964752853
 20
3955.9924664121
 10
3227.7234745482
 20
3976.5815091477
 10
3227.7234745482
 20
3976.5815091477
  0
LINE
  5
40C
330
1F
100
AcDbEntity
  8
0
  6
Continuous
 62
     7
370
    25
100
AcDbLine
 10
3210.3343307432
 20
4305.372225306
 30
0.0
 11
3210.295269145
 21
4305.8447778587
 31
0.0
  0
ARC
  5
40D
330
1F
100
AcDbEntity
  8
0
  6
Continuous
 62
     7
370
    25
100
AcDbCircle
 10
3331.4507606135
 20
4558.0258096039
 30
0.0
 40
140.0000000000006
100
AcDbArc
 50
0.8656666697
 51
180.8656666697
  0
LINE
  5
40E
330
1F
100
AcDbEntity
  8
0
  6
Continuous
 62
     7
370
    25
100
AcDbLine
 10
3472.8194029458
 20
4468.4426623736
 30
0.0
 11
3471.4347817493
 21
4560.1409518353
 31
0.0
  0
SPLINE
  5
40F
330
1F
100
AcDbEntity
  8
0
  6
Continuous
 62
     7
370
    25
100
AcDbSpline
210
0.0
220
0.0
230
1.0
 70
     8
 71
     3
 72
    19
 73
    15
 74
     0
 42
0.00000001
 43
0.00000001
 40
0.0
 40
0.0
 40
0.0
 40
0.0
 40
0.056410519343533
 40
0.1210075756706672
 40
0.1856231106966403
 40
0.2736052726930164
 40
0.3616335607896441
 40
0.4527610084343915
 40
0.5439118072157226
 40
0.635721322013022
 40
0.7275440402539275
 40
0.8206867417477667
 40
0.9138364619974327
 40
1.0
 40
1.0
 40
1.0
 40
1.0
 10
3460.103085013583
 20
4321.724122146111
 30
0.0
 10
3460.275040914079
 20
4327.032374233604
 30
0.0
 10
3460.643907694311
 20
4338.419234763013
 30
0.0
 10
3461.227120966279
 20
4354.317710138275
 30
0.0
 10
3461.920329130306
 20
4371.455715297314
 30
0.0
 10
3462.702462760263
 20
4388.364650783828
 30
0.0
 10
3463.585332267501
 20
4404.71356820236
 30
0.0
 10
3464.496454194939
 20
4418.966090464724
 30
0.0
 10
3465.442901168248
 20
4431.251816323424
 30
0.0
 10
3466.42166830453
 20
4441.559668350972
 30
0.0
 10
3467.439041391002
 20
4450.087011772909
 30
0.0
 10
3468.500427431316
 20
4456.865053134648
 30
0.0
 10
3469.573423938859
 20
4462.136276111602
 30
0.0
 10
3470.336552031298
 20
4464.13386772539
 30
0.0
 10
3470.703250049251
 20
4465.09374968061
 30
0.0
  0
SPLINE
  5
410
330
1F
100
AcDbEntity
  8
0
  6
Continuous
 62
     7
370
    25
100
AcDbSpline
210
0.0
220
0.0
230
1.0
 70
     8
 71
     3
 72
    19
 73
    15
 74
     0
 42
0.00000001
 43
0.00000001
 40
0.0
 40
0.0
 40
0.0
 40
0.0
 40
0.0839995768457475
 40
0.1760923102106468
 40
0.2681784200957367
 40
0.36147619187251
 40
0.4547600440719529
 40
0.54320586593208
 40
0.6316314341812426
 40
0.7227698649632044
 40
0.8138562814861389
 40
0.8760792040798613
 40
0.9382859640594446
 40
1.0
 40
1.0
 40
1.0
 40
1.0
 10
3195.101863211114
 20
4460.838571162154
 30
0.0
 10
3195.486605769977
 20
4459.916322940403
 30
0.0
 10
3196.293159904779
 20
4457.982970106329
 30
0.0
 10
3197.502832832998
 20
4452.84336679045
 30
0.0
 10
3198.762592742931
 20
4446.166599198502
 30
0.0
 10
3200.042510895501
 20
4437.671943388881
 30
0.0
 10
3201.330293462678
 20
4427.426417824786
 30
0.0
 10
3202.625180858414
 20
4415.408910289486
 30
0.0
 10
3203.949895728451
 20
4401.447109128299
 30
0.0
 10
3205.338477723842
 20
4385.073127046396
 30
0.0
 10
3206.647855792895
 20
4368.00323529762
 30
0.0
 10
3207.845627651875
 20
4351.099668085934
 30
0.0
 10
3208.907856958612
 20
4335.289404169055
 30
0.0
 10
3209.635535795365
 20
4323.705146385787
 30
0.0
 10
3209.997928544308
 20
4317.936047697606
 30
0.0
  0
LINE
  5
411
330
1F
100
AcDbEntity
  8
0
  6
Continuous
 62
     7
370
    25
100
AcDbLine
 10
3191.4667394777
 20
4555.9106673723
 30
0.0
 11
3192.8532187728
 21
4464.2124059906
 31
0.0
  0
SPLINE
  5
412
330
1F
100
AcDbEntity
  8
0
  6
Continuous
 62
     7
370
    25
100
AcDbSpline
210
0.0
220
0.0
230
1.0
 70
     8
 71
     3
 72
    10
 73
     6
 74
     0
 42
0.00000001
 43
0.00000001
 40
0.0
 40
0.0
 40
0.0
 40
0.0
 40
0.3312130039958083
 40
0.6624157689881146
 40
1.0
 40
1.0
 40
1.0
 40
1.0
 10
3472.819402945798
 20
4468.442662373575
 30
0.0
 10
3472.771363385336
 20
4467.881410270295
 30
0.0
 10
3472.675285749492
 20
4466.758923414083
 30
0.0
 10
3471.848775410258
 20
4465.212604445622
 30
0.0
 10
3470.956939188429
 20
4464.506003880228
 30
0.0
 10
3470.506766193239
 20
4464.149332458795
 30
0.0
  0
SPLINE
  5
413
330
1F
100
AcDbEntity
  8
0
  6
Continuous
 62
     7
370
    25
100
AcDbSpline
210
0.0
220
0.0
230
1.0
 70
     8
 71
     3
 72
    10
 73
     6
 74
     0
 42
0.00000001
 43
0.00000001
 40
0.0
 40
0.0
 40
0.0
 40
0.0
 40
0.3317097585614573
 40
0.6634278230378602
 40
1.0
 40
1.0
 40
1.0
 40
1.0
 10
3195.294513590497
 20
4459.990907423227
 30
0.0
 10
3194.841397043193
 20
4460.326972014933
 30
0.0
 10
3193.935152602677
 20
4460.999109613303
 30
0.0
 10
3193.053000576481
 20
4462.51454605655
 30
0.0
 10
3192.920134397631
 20
4463.643718768883
 30
0.0
 10
3192.853218772821
 20
4464.212405986488
 30
0.0
  0
LINE
  5
414
330
1F
100
AcDbEntity
  8
0
  6
Continuous
 62
     8
370
    25
100
AcDbLine
 10
3079.3866595913
 20
4555.1261366166
 30
0.0
 11
3039.3866595913
 21
4555.1261366166
 31
0.0
  0
LINE
  5
415
330
1F
100
AcDbEntity
  8
0
  6
Continuous
 62
     8
370
    25
100
AcDbLine
 10
3079.3866595913
 20
4560.1261366166
 30
0.0
 11
3039.3866595913
 21
4560.1261366166
 31
0.0
  0
LINE
  5
416
330
1F
100
AcDbEntity
  8
0
  6
Continuous
 62
     8
370
    25
100
AcDbLine
 10
3078.2074143083
 20
4553.0034951071
 30
0.0
 11
3040.5659048743
 21
4553.0034951071
 31
0.0
  0
LINE
  5
417
330
1F
100
AcDbEntity
  8
0
  6
Continuous
 62
     8
370
    25
100
AcDbLine
 10
3071.8866595913
 20
4572.6261366166
 30
0.0
 11
3192.8584296064
 21
4572.6261366166
 31
0.0
  0
LINE
  5
418
330
1F
100
AcDbEntity
  8
0
  6
Continuous
 62
     8
370
    25
100
AcDbLine
 10
3146.1366595913
 20
4550.1261366166
 30
0.0
 11
3191.6455880413
 21
4550.1261366166
 31
0.0
  0
LINE
  5
419
330
1F
100
AcDbEntity
  8
0
  6
Continuous
 62
     8
370
    25
100
AcDbLine
 10
3323.6366595913
 20
4697.3614567821
 30
0.0
 11
3323.6366595913
 21
4744.6261366166
 31
0.0
  0
LINE
  5
41A
330
1F
100
AcDbEntity
  8
0
  6
Continuous
 62
     8
370
    25
100
AcDbLine
 10
2973.6366595913
 20
4695.6616705225
 30
0.0
 11
3308.6961893061
 21
4695.6616705225
 31
0.0
  0
LINE
  5
41B
330
1F
100
AcDbEntity
  8
0
  6
Continuous
 62
     8
370
    25
100
AcDbLine
 10
3298.8986893847
 20
4693.8939035695
 30
0.0
 11
2973.6366595913
 21
4693.8939035695
 31
0.0
  0
LINE
  5
41C
330
1F
100
AcDbEntity
  8
0
  6
Continuous
 62
     8
370
    25
100
AcDbLine
 10
2973.6366595913
 20
4685.3583696636
 30
0.0
 11
3273.7859459489
 21
4685.3583696636
 31
0.0
  0
LWPOLYLINE
  5
41D
330
1F
100
AcDbEntity
  8
0
  6
Continuous
 62
     8
370
    25
100
AcDbPolyline
 90
       17
 70
   128
 43
0.0
 10
3210.4418995455
 20
4306.8451231151
 10
3211.7220226845
 20
4315.5784083386
 10
3217.7763929536
 20
4325.3426310641
 10
3228.542017275
 20
4334.6963951852
 10
3243.7938410689
 20
4343.1736285994
 10
3262.974389718
 20
4350.3285836539
 10
3285.2201528552
 20
4355.7860172486
 10
3309.4403658458
 20
4359.2849155231
 10
3334.432259102
 20
4360.7047304498
 10
3359.4556399181
 20
4360.0406404807
 10
3383.7705078233
 20
4357.2751016176
 10
3406.171000208
 20
4352.4922677365
 10
3425.5589644079
 20
4345.9200784127
 10
3441.0599470891
 20
4337.9075163173
 10
3452.1032608132
 20
4328.8832827064
 10
3458.4498723654
 20
4319.3064373698
 10
3459.9607341244
 20
4310.7990123516
  0
LWPOLYLINE
  5
41E
330
1F
100
AcDbEntity
  8
0
  6
Continuous
 62
     8
370
    25
100
AcDbPolyline
 90
        5
 70
   128
 43
0.0
 10
3470.7032500493
 20
4465.0937496806
 10
3471.1488365113
 20
4466.4135383071
 10
3472.8193900503
 20
4468.4426567037
 10
3472.8194029458
 20
4468.4426623736
 10
3472.8194029458
 20
4468.4426623736
  0
SPLINE
  5
41F
330
1F
100
AcDbEntity
  8
0
  6
Continuous
 62
     8
370
    25
100
AcDbSpline
210
0.0
220
0.0
230
1.0
 70
     8
 71
     3
 72
    10
 73
     6
 74
     0
 42
0.00000001
 43
0.00000001
 40
0.0
 40
0.0
 40
0.0
 40
0.0
 40
0.000005612635054
 40
0.7610332985076741
 40
1.0
 40
1.0
 40
1.0
 40
1.0
 10
3192.853218772821
 20
4464.212405986488
 30
0.0
 10
3192.853223126445
 20
4464.212404227275
 30
0.0
 10
3193.443543547501
 20
4463.973867562643
 30
0.0
 10
3194.198669029222
 20
4463.42486304467
 30
0.0
 10
3194.927658115897
 20
4461.337406554016
 30
0.0
 10
3195.101863211114
 20
4460.838571162154
 30
0.0
  0
ENDSEC
  0
SECTION
  2
OBJECTS
  0
DICTIONARY
  5
C
330
0
100
AcDbDictionary
281
     1
  3
ACAD_GROUP
350
D
  3
ACAD_LAYOUT
350
1A
  3
ACAD_MLINESTYLE
350
17
  3
ACAD_PLOTSETTINGS
350
19
  3
ACAD_PLOTSTYLENAME
350
E
  3
ACAD_SCALELIST
350
47
  3
DWGPROPS
350
420
  0
DICTIONARY
  5
D
102
{ACAD_REACTORS
330
C
102
}
330
C
100
AcDbDictionary
281
     1
  0
DICTIONARY
  5
1A
102
{ACAD_REACTORS
330
C
102
}
330
C
100
AcDbDictionary
281
     1
  3
Layout1
350
1E
  3
Layout2
350
26
  3
Model
350
22
  0
DICTIONARY
  5
17
102
{ACAD_REACTORS
330
C
102
}
330
C
100
AcDbDictionary
281
     1
  3
Standard
350
18
  0
DICTIONARY
  5
19
102
{ACAD_REACTORS
330
C
102
}
330
C
100
AcDbDictionary
281
     1
  0
ACDBDICTIONARYWDFLT
  5
E
102
{ACAD_REACTORS
330
C
102
}
330
C
100
AcDbDictionary
281
     1
  3
Normal
350
F
100
AcDbDictionaryWithDefault
340
F
  0
DICTIONARY
  5
47
102
{ACAD_REACTORS
330
C
102
}
330
C
100
AcDbDictionary
281
     1
  3
A0
350
48
  3
A1
350
49
  3
A2
350
4A
  3
A3
350
4B
  3
A4
350
4C
  3
A5
350
4D
  3
A6
350
4E
  3
A7
350
4F
  3
A8
350
50
  3
A9
350
51
  3
B0
350
52
  3
B1
350
53
  3
B2
350
54
  3
B3
350
55
  3
B4
350
56
  3
B5
350
57
  3
B6
350
58
  3
B7
350
59
  3
B8
350
5A
  3
B9
350
5B
  3
C0
350
5C
  3
C1
350
5D
  3
C2
350
5E
  3
C3
350
5F
  3
C4
350
60
  3
C5
350
61
  3
C6
350
62
  3
C7
350
63
  3
C8
350
64
  3
C9
350
65
  3
D0
350
66
  3
D1
350
67
  3
D2
350
68
  0
XRECORD
  5
420
102
{ACAD_REACTORS
330
C
102
}
330
C
100
AcDbXrecord
280
     1
  1
DWGPROPS COOKIE
  2

  3

  4

  6

  7

  8
radek.stransky
  9

300
=
301
=
302
=
303
=
304
=
305
=
306
=
307
=
308
=
309
=
 40
0.0
 41
2459093.29273934
 42
2459093.292739919
  1

 90
        0
  0
LAYOUT
  5
1E
102
{ACAD_REACTORS
330
1A
102
}
330
1A
100
AcDbPlotSettings
  1

  2
none_device
  4

  6

 40
0.0
 41
0.0
 42
0.0
 43
0.0
 44
0.0
 45
0.0
 46
0.0
 47
0.0
 48
0.0
 49
0.0
140
0.0
141
0.0
142
1.0
143
1.0
 70
   688
 72
     1
 73
     0
 74
     5
  7

 75
    16
147
1.0
148
0.0
149
0.0
100
AcDbLayout
  1
Layout1
 70
     1
 71
     1
 10
0.0
 20
0.0
 11
420.0
 21
297.0
 12
0.0
 22
0.0
 32
0.0
 14
1.0000000000E+20
 24
1.0000000000E+20
 34
1.0000000000E+20
 15
-1.0000000000E+20
 25
-1.0000000000E+20
 35
-1.0000000000E+20
146
0.0
 13
0.0
 23
0.0
 33
0.0
 16
1.0
 26
0.0
 36
0.0
 17
0.0
 27
1.0
 37
0.0
 76
     0
330
1B
  0
LAYOUT
  5
26
102
{ACAD_REACTORS
330
1A
102
}
330
1A
100
AcDbPlotSettings
  1

  2
none_device
  4

  6

 40
0.0
 41
0.0
 42
0.0
 43
0.0
 44
0.0
 45
0.0
 46
0.0
 47
0.0
 48
0.0
 49
0.0
140
0.0
141
0.0
142
1.0
143
1.0
 70
   688
 72
     1
 73
     0
 74
     5
  7

 75
    16
147
1.0
148
0.0
149
0.0
100
AcDbLayout
  1
Layout2
 70
     1
 71
     2
 10
0.0
 20
0.0
 11
0.0
 21
0.0
 12
0.0
 22
0.0
 32
0.0
 14
0.0
 24
0.0
 34
0.0
 15
0.0
 25
0.0
 35
0.0
146
0.0
 13
0.0
 23
0.0
 33
0.0
 16
1.0
 26
0.0
 36
0.0
 17
0.0
 27
1.0
 37
0.0
 76
     0
330
23
  0
LAYOUT
  5
22
102
{ACAD_REACTORS
330
1A
102
}
330
1A
100
AcDbPlotSettings
  1

  2
none_device
  4
Letter_(8.50_x_11.00_Inches)
  6

 40
6.35
 41
6.35
 42
6.35000508
 43
6.35000508
 44
215.9
 45
279.4
 46
0.0
 47
0.0
 48
0.0
 49
0.0
140
0.0
141
0.0
142
1.0
143
1.0
 70
  1712
 72
     1
 73
     0
 74
     0
  7

 75
     0
147
1.0
148
0.0
149
0.0
100
AcDbLayout
  1
Model
 70
     1
 71
     0
 10
0.0
 20
0.0
 11
20000.0
 21
10000.0
 12
0.0
 22
0.0
 32
0.0
 14
0.0
 24
0.0
 34
0.0
 15
20000.0
 25
10000.0
 35
0.0
146
0.0
 13
0.0
 23
0.0
 33
0.0
 16
1.0
 26
0.0
 36
0.0
 17
0.0
 27
1.0
 37
0.0
 76
     0
330
1F
331
29
  0
MLINESTYLE
  5
18
102
{ACAD_REACTORS
330
17
102
}
330
17
100
AcDbMlineStyle
  2
Standard
 70
     0
  3

 62
   256
 51
90.0
 52
90.0
 71
     2
 49
0.5
 62
   256
  6
BYLAYER
 49
-0.5
 62
   256
  6
BYLAYER
  0
ACDBPLACEHOLDER
  5
F
102
{ACAD_REACTORS
330
E
102
}
330
E
  0
SCALE
  5
48
102
{ACAD_REACTORS
330
47
102
}
330
47
100
AcDbScale
 70
     0
300
1:1
140
1.0
141
1.0
290
     1
  0
SCALE
  5
49
102
{ACAD_REACTORS
330
47
102
}
330
47
100
AcDbScale
 70
     0
300
1:2
140
1.0
141
2.0
290
     0
  0
SCALE
  5
4A
102
{ACAD_REACTORS
330
47
102
}
330
47
100
AcDbScale
 70
     0
300
1:4
140
1.0
141
4.0
290
     0
  0
SCALE
  5
4B
102
{ACAD_REACTORS
330
47
102
}
330
47
100
AcDbScale
 70
     0
300
1:5
140
1.0
141
5.0
290
     0
  0
SCALE
  5
4C
102
{ACAD_REACTORS
330
47
102
}
330
47
100
AcDbScale
 70
     0
300
1:8
140
1.0
141
8.0
290
     0
  0
SCALE
  5
4D
102
{ACAD_REACTORS
330
47
102
}
330
47
100
AcDbScale
 70
     0
300
1:10
140
1.0
141
10.0
290
     0
  0
SCALE
  5
4E
102
{ACAD_REACTORS
330
47
102
}
330
47
100
AcDbScale
 70
     0
300
1:16
140
1.0
141
16.0
290
     0
  0
SCALE
  5
4F
102
{ACAD_REACTORS
330
47
102
}
330
47
100
AcDbScale
 70
     0
300
1:20
140
1.0
141
20.0
290
     0
  0
SCALE
  5
50
102
{ACAD_REACTORS
330
47
102
}
330
47
100
AcDbScale
 70
     0
300
1:30
140
1.0
141
30.0
290
     0
  0
SCALE
  5
51
102
{ACAD_REACTORS
330
47
102
}
330
47
100
AcDbScale
 70
     0
300
1:40
140
1.0
141
40.0
290
     0
  0
SCALE
  5
52
102
{ACAD_REACTORS
330
47
102
}
330
47
100
AcDbScale
 70
     0
300
1:50
140
1.0
141
50.0
290
     0
  0
SCALE
  5
53
102
{ACAD_REACTORS
330
47
102
}
330
47
100
AcDbScale
 70
     0
300
1:100
140
1.0
141
100.0
290
     0
  0
SCALE
  5
54
102
{ACAD_REACTORS
330
47
102
}
330
47
100
AcDbScale
 70
     0
300
2:1
140
2.0
141
1.0
290
     0
  0
SCALE
  5
55
102
{ACAD_REACTORS
330
47
102
}
330
47
100
AcDbScale
 70
     0
300
4:1
140
4.0
141
1.0
290
     0
  0
SCALE
  5
56
102
{ACAD_REACTORS
330
47
102
}
330
47
100
AcDbScale
 70
     0
300
8:1
140
8.0
141
1.0
290
     0
  0
SCALE
  5
57
102
{ACAD_REACTORS
330
47
102
}
330
47
100
AcDbScale
 70
     0
300
10:1
140
10.0
141
1.0
290
     0
  0
SCALE
  5
58
102
{ACAD_REACTORS
330
47
102
}
330
47
100
AcDbScale
 70
     0
300
100:1
140
100.0
141
1.0
290
     0
  0
SCALE
  5
59
102
{ACAD_REACTORS
330
47
102
}
330
47
100
AcDbScale
 70
     0
300
1/128" = 1'-0"
140
0.0078125
141
12.0
290
     0
  0
SCALE
  5
5A
102
{ACAD_REACTORS
330
47
102
}
330
47
100
AcDbScale
 70
     0
300
1/64" = 1'-0"
140
0.015625
141
12.0
290
     0
  0
SCALE
  5
5B
102
{ACAD_REACTORS
330
47
102
}
330
47
100
AcDbScale
 70
     0
300
1/32" = 1'-0"
140
0.03125
141
12.0
290
     0
  0
SCALE
  5
5C
102
{ACAD_REACTORS
330
47
102
}
330
47
100
AcDbScale
 70
     0
300
1/16" = 1'-0"
140
0.0625
141
12.0
290
     0
  0
SCALE
  5
5D
102
{ACAD_REACTORS
330
47
102
}
330
47
100
AcDbScale
 70
     0
300
3/32" = 1'-0"
140
0.09375
141
12.0
290
     0
  0
SCALE
  5
5E
102
{ACAD_REACTORS
330
47
102
}
330
47
100
AcDbScale
 70
     0
300
1/8" = 1'-0"
140
0.125
141
12.0
290
     0
  0
SCALE
  5
5F
102
{ACAD_REACTORS
330
47
102
}
330
47
100
AcDbScale
 70
     0
300
3/16" = 1'-0"
140
0.1875
141
12.0
290
     0
  0
SCALE
  5
60
102
{ACAD_REACTORS
330
47
102
}
330
47
100
AcDbScale
 70
     0
300
1/4" = 1'-0"
140
0.25
141
12.0
290
     0
  0
SCALE
  5
61
102
{ACAD_REACTORS
330
47
102
}
330
47
100
AcDbScale
 70
     0
300
3/8" = 1'-0"
140
0.375
141
12.0
290
     0
  0
SCALE
  5
62
102
{ACAD_REACTORS
330
47
102
}
330
47
100
AcDbScale
 70
     0
300
1/2" = 1'-0"
140
0.5
141
12.0
290
     0
  0
SCALE
  5
63
102
{ACAD_REACTORS
330
47
102
}
330
47
100
AcDbScale
 70
     0
300
3/4" = 1'-0"
140
0.75
141
12.0
290
     0
  0
SCALE
  5
64
102
{ACAD_REACTORS
330
47
102
}
330
47
100
AcDbScale
 70
     0
300
1" = 1'-0"
140
1.0
141
12.0
290
     0
  0
SCALE
  5
65
102
{ACAD_REACTORS
330
47
102
}
330
47
100
AcDbScale
 70
     0
300
1-1/2" = 1'-0"
140
1.5
141
12.0
290
     0
  0
SCALE
  5
66
102
{ACAD_REACTORS
330
47
102
}
330
47
100
AcDbScale
 70
     0
300
3" = 1'-0"
140
3.0
141
12.0
290
     0
  0
SCALE
  5
67
102
{ACAD_REACTORS
330
47
102
}
330
47
100
AcDbScale
 70
     0
300
6" = 1'-0"
140
6.0
141
12.0
290
     0
  0
SCALE
  5
68
102
{ACAD_REACTORS
330
47
102
}
330
47
100
AcDbScale
 70
     0
300
1'-0" = 1'-0"
140
12.0
141
12.0
290
     0
  0
ENDSEC
  0
EOF
