  0
SECTION
  2
HEADER
  9
$ACADVER
  1
AC1015
  9
$ACADMAINTVER
 70
     6
  9
$DWGCODEPAGE
  3
ANSI_1250
  9
$INSBASE
 10
0.0
 20
0.0
 30
0.0
  9
$EXTMIN
 10
0.0
 20
0.0
 30
0.0
  9
$EXTMAX
 10
20000.0
 20
10000.0
 30
0.0
  9
$LIMMIN
 10
0.0
 20
0.0
  9
$LIMMAX
 10
20000.0
 20
10000.0
  9
$ORTHOMODE
 70
     0
  9
$REGENMODE
 70
     1
  9
$FILLMODE
 70
     1
  9
$QTEXTMODE
 70
     0
  9
$MIRRTEXT
 70
     1
  9
$LTSCALE
 40
1.0
  9
$ATTMODE
 70
     1
  9
$TEXTSIZE
 40
2.0
  9
$TRACEWID
 40
1.0
  9
$TEXTSTYLE
  7
Standard
  9
$CLAYER
  8
0
  9
$CELTYPE
  6
ByLayer
  9
$CECOLOR
 62
   256
  9
$CELTSCALE
 40
1.0
  9
$DISPSILH
 70
     0
  9
$DIMSCALE
 40
1.0
  9
$DIMASZ
 40
2.0
  9
$DIMEXO
 40
1.0
  9
$DIMDLI
 40
3.75
  9
$DIMRND
 40
0.0
  9
$DIMDLE
 40
0.0
  9
$DIMEXE
 40
1.0
  9
$DIMTP
 40
0.0
  9
$DIMTM
 40
0.0
  9
$DIMTXT
 40
2.0
  9
$DIMCEN
 40
2.5
  9
$DIMTSZ
 40
0.0
  9
$DIMTOL
 70
     0
  9
$DIMLIM
 70
     0
  9
$DIMTIH
 70
     1
  9
$DIMTOH
 70
     1
  9
$DIMSE1
 70
     0
  9
$DIMSE2
 70
     0
  9
$DIMTAD
 70
     1
  9
$DIMZIN
 70
     0
  9
$DIMBLK
  1

  9
$DIMASO
 70
     1
  9
$DIMSHO
 70
     1
  9
$DIMPOST
  1

  9
$DIMAPOST
  1

  9
$DIMALT
 70
     0
  9
$DIMALTD
 70
     3
  9
$DIMALTF
 40
0.0393700787
  9
$DIMLFAC
 40
1.0
  9
$DIMTOFL
 70
     1
  9
$DIMTVP
 40
0.0
  9
$DIMTIX
 70
     0
  9
$DIMSOXD
 70
     0
  9
$DIMSAH
 70
     0
  9
$DIMBLK1
  1

  9
$DIMBLK2
  1

  9
$DIMSTYLE
  2
ISO-25
  9
$DIMCLRD
 70
     0
  9
$DIMCLRE
 70
     0
  9
$DIMCLRT
 70
     0
  9
$DIMTFAC
 40
1.0
  9
$DIMGAP
 40
1.524
  9
$DIMJUST
 70
     0
  9
$DIMSD1
 70
     0
  9
$DIMSD2
 70
     0
  9
$DIMTOLJ
 70
     0
  9
$DIMTZIN
 70
     0
  9
$DIMALTZ
 70
     0
  9
$DIMALTTZ
 70
     0
  9
$DIMUPT
 70
     0
  9
$DIMDEC
 70
     2
  9
$DIMTDEC
 70
     0
  9
$DIMALTU
 70
     2
  9
$DIMALTTD
 70
     3
  9
$DIMTXSTY
  7
Standard
  9
$DIMAUNIT
 70
     0
  9
$DIMADEC
 70
     2
  9
$DIMALTRND
 40
0.0
  9
$DIMAZIN
 70
     0
  9
$DIMDSEP
 70
    44
  9
$DIMATFIT
 70
     3
  9
$DIMFRAC
 70
     0
  9
$DIMLDRBLK
  1

  9
$DIMLUNIT
 70
     2
  9
$DIMLWD
 70
    -2
  9
$DIMLWE
 70
    -2
  9
$DIMTMOVE
 70
     0
  9
$LUNITS
 70
     2
  9
$LUPREC
 70
     3
  9
$SKETCHINC
 40
1.0
  9
$FILLETRAD
 40
10.0
  9
$AUNITS
 70
     0
  9
$AUPREC
 70
     2
  9
$MENU
  1
.
  9
$ELEVATION
 40
0.0
  9
$PELEVATION
 40
0.0
  9
$THICKNESS
 40
0.0
  9
$LIMCHECK
 70
     0
  9
$CHAMFERA
 40
0.0
  9
$CHAMFERB
 40
0.0
  9
$CHAMFERC
 40
0.0
  9
$CHAMFERD
 40
0.0
  9
$SKPOLY
 70
     0
  9
$TDCREATE
 40
2459089.525306354
  9
$TDUCREATE
 40
2459089.441973021
  9
$TDUPDATE
 40
2459089.52530728
  9
$TDUUPDATE
 40
2459089.441973947
  9
$TDINDWG
 40
0.0000000116
  9
$TDUSRTIMER
 40
0.0000000116
  9
$USRTIMER
 70
     1
  9
$ANGBASE
 50
0.0
  9
$ANGDIR
 70
     0
  9
$PDMODE
 70
     0
  9
$PDSIZE
 40
-1.0
  9
$PLINEWID
 40
0.0
  9
$SPLFRAME
 70
     0
  9
$SPLINETYPE
 70
     6
  9
$SPLINESEGS
 70
     8
  9
$HANDSEED
  5
27D
  9
$SURFTAB1
 70
     6
  9
$SURFTAB2
 70
     6
  9
$SURFTYPE
 70
     6
  9
$SURFU
 70
     6
  9
$SURFV
 70
     6
  9
$UCSBASE
  2

  9
$UCSNAME
  2

  9
$UCSORG
 10
0.0
 20
0.0
 30
0.0
  9
$UCSXDIR
 10
1.0
 20
0.0
 30
0.0
  9
$UCSYDIR
 10
0.0
 20
1.0
 30
0.0
  9
$UCSORTHOREF
  2

  9
$UCSORTHOVIEW
 70
     0
  9
$UCSORGTOP
 10
0.0
 20
0.0
 30
0.0
  9
$UCSORGBOTTOM
 10
0.0
 20
0.0
 30
0.0
  9
$UCSORGLEFT
 10
0.0
 20
0.0
 30
0.0
  9
$UCSORGRIGHT
 10
0.0
 20
0.0
 30
0.0
  9
$UCSORGFRONT
 10
0.0
 20
0.0
 30
0.0
  9
$UCSORGBACK
 10
0.0
 20
0.0
 30
0.0
  9
$PUCSBASE
  2

  9
$PUCSNAME
  2

  9
$PUCSORG
 10
0.0
 20
0.0
 30
0.0
  9
$PUCSXDIR
 10
1.0
 20
0.0
 30
0.0
  9
$PUCSYDIR
 10
0.0
 20
1.0
 30
0.0
  9
$PUCSORTHOREF
  2

  9
$PUCSORTHOVIEW
 70
     0
  9
$PUCSORGTOP
 10
0.0
 20
0.0
 30
0.0
  9
$PUCSORGBOTTOM
 10
0.0
 20
0.0
 30
0.0
  9
$PUCSORGLEFT
 10
0.0
 20
0.0
 30
0.0
  9
$PUCSORGRIGHT
 10
0.0
 20
0.0
 30
0.0
  9
$PUCSORGFRONT
 10
0.0
 20
0.0
 30
0.0
  9
$PUCSORGBACK
 10
0.0
 20
0.0
 30
0.0
  9
$USERI1
 70
     0
  9
$USERI2
 70
     0
  9
$USERI3
 70
     0
  9
$USERI4
 70
     0
  9
$USERI5
 70
     0
  9
$USERR1
 40
0.0
  9
$USERR2
 40
0.0
  9
$USERR3
 40
0.0
  9
$USERR4
 40
0.0
  9
$USERR5
 40
0.0
  9
$WORLDVIEW
 70
     1
  9
$SHADEDGE
 70
     3
  9
$SHADEDIF
 70
    70
  9
$TILEMODE
 70
     1
  9
$MAXACTVP
 70
    64
  9
$PINSBASE
 10
0.0
 20
0.0
 30
0.0
  9
$PLIMCHECK
 70
     0
  9
$PEXTMIN
 10
1.0000000000E+20
 20
1.0000000000E+20
 30
1.0000000000E+20
  9
$PEXTMAX
 10
-1.0000000000E+20
 20
-1.0000000000E+20
 30
-1.0000000000E+20
  9
$PLIMMIN
 10
0.0
 20
0.0
  9
$PLIMMAX
 10
420.0
 20
297.0
  9
$UNITMODE
 70
     0
  9
$VISRETAIN
 70
     1
  9
$PLINEGEN
 70
     0
  9
$PSLTSCALE
 70
     1
  9
$TREEDEPTH
 70
  3020
  9
$CMLSTYLE
  2
Standard
  9
$CMLJUST
 70
     0
  9
$CMLSCALE
 40
20.0
  9
$PROXYGRAPHICS
 70
     1
  9
$MEASUREMENT
 70
     1
  9
$CELWEIGHT
370
    -1
  9
$ENDCAPS
280
     0
  9
$JOINSTYLE
280
     0
  9
$LWDISPLAY
290
     1
  9
$INSUNITS
 70
     4
  9
$HYPERLINKBASE
  1

  9
$STYLESHEET
  1

  9
$XEDIT
290
     1
  9
$CEPSNTYPE
380
     0
  9
$PSTYLEMODE
290
     1
  9
$FINGERPRINTGUID
  2
{d53c30a6-9924-4a12-8a4c-7412606956a7}
  9
$VERSIONGUID
  2
{FAEB1C32-E019-11D5-929B-00C0DF256EC4}
  9
$EXTNAMES
290
     1
  9
$PSVPSCALE
 40
0.0
  9
$OLESTARTUP
290
     0
  0
ENDSEC
  0
SECTION
  2
CLASSES
  0
CLASS
  1
ACDBDICTIONARYWDFLT
  2
AcDbDictionaryWithDefault
  3
ObjectDBX Classes
 90
        0
280
     0
281
     0
  0
CLASS
  1
VISUALSTYLE
  2
AcDbVisualStyle
  3
ObjectDBX Classes
 90
     4095
280
     0
281
     0
  0
CLASS
  1
MATERIAL
  2
AcDbMaterial
  3
ObjectDBX Classes
 90
     1153
280
     0
281
     0
  0
CLASS
  1
SCALE
  2
AcDbScale
  3
ObjectDBX Classes
 90
     1153
280
     0
281
     0
  0
CLASS
  1
TABLESTYLE
  2
AcDbTableStyle
  3
ObjectDBX Classes
 90
     4095
280
     0
281
     0
  0
CLASS
  1
MLEADERSTYLE
  2
AcDbMLeaderStyle
  3
ACDB_MLEADERSTYLE_CLASS
 90
     4095
280
     0
281
     0
  0
CLASS
  1
SUN
  2
AcDbSun
  3
SCENEOE
 90
     1153
280
     0
281
     0
  0
CLASS
  1
ACDBPLACEHOLDER
  2
AcDbPlaceHolder
  3
ObjectDBX Classes
 90
        0
280
     0
281
     0
  0
CLASS
  1
LAYOUT
  2
AcDbLayout
  3
ObjectDBX Classes
 90
        0
280
     0
281
     0
  0
ENDSEC
  0
SECTION
  2
TABLES
  0
TABLE
  2
VPORT
  5
8
330
0
100
AcDbSymbolTable
 70
     1
  0
VPORT
  5
29
330
8
100
AcDbSymbolTableRecord
100
AcDbViewportTableRecord
  2
*Active
 70
     0
 10
0.0
 20
0.0
 11
1.0
 21
1.0
 12
10000.0
 22
5000.0
 13
0.0
 23
0.0
 14
10.0
 24
10.0
 15
10.0
 25
10.0
 16
0.0
 26
0.0
 36
1.0
 17
0.0
 27
0.0
 37
0.0
 40
10000.0
 41
2.0
 42
50.0
 43
0.0
 44
0.0
 50
0.0
 51
0.0
 71
     0
 72
  2000
 73
     1
 74
     3
 75
     0
 76
     0
 77
     0
 78
     0
281
     0
 65
     1
110
0.0
120
0.0
130
0.0
111
1.0
121
0.0
131
0.0
112
0.0
122
1.0
132
0.0
 79
     0
146
0.0
  0
ENDTAB
  0
TABLE
  2
LTYPE
  5
5
330
0
100
AcDbSymbolTable
 70
     6
  0
LTYPE
  5
14
330
5
100
AcDbSymbolTableRecord
100
AcDbLinetypeTableRecord
  2
ByBlock
 70
     0
  3

 72
    65
 73
     0
 40
0.0
  0
LTYPE
  5
15
330
5
100
AcDbSymbolTableRecord
100
AcDbLinetypeTableRecord
  2
ByLayer
 70
     0
  3

 72
    65
 73
     0
 40
0.0
  0
LTYPE
  5
16
330
5
100
AcDbSymbolTableRecord
100
AcDbLinetypeTableRecord
  2
Continuous
 70
     0
  3
Solid line
 72
    65
 73
     0
 40
0.0
  0
LTYPE
  5
6E
330
5
100
AcDbSymbolTableRecord
100
AcDbLinetypeTableRecord
  2
HIDDEN
 70
     0
  3
Hidden __ __ __ __ __ __ __ __ __ __ __ __ __ __
 72
    65
 73
     2
 40
1.905
 49
1.27
 74
     0
 49
-0.635
 74
     0
  0
LTYPE
  5
6F
330
5
100
AcDbSymbolTableRecord
100
AcDbLinetypeTableRecord
  2
PHANTOM
 70
     0
  3
Phantom ______  __  __  ______  __  __  ______
 72
    65
 73
     6
 40
12.7
 49
6.35
 74
     0
 49
-1.27
 74
     0
 49
1.27
 74
     0
 49
-1.27
 74
     0
 49
1.27
 74
     0
 49
-1.27
 74
     0
  0
LTYPE
  5
70
330
5
100
AcDbSymbolTableRecord
100
AcDbLinetypeTableRecord
  2
CENTER
 70
     0
  3
Center ____ _ ____ _ ____ _ ____ _ ____ _ ____
 72
    65
 73
     4
 40
10.16
 49
6.35
 74
     0
 49
-1.27
 74
     0
 49
1.27
 74
     0
 49
-1.27
 74
     0
  0
LTYPE
  5
71
330
5
100
AcDbSymbolTableRecord
100
AcDbLinetypeTableRecord
  2
CENTERX2
 70
     0
  3
Center (2x) ________  __  ________  __  _____
 72
    65
 73
     4
 40
20.32
 49
12.7
 74
     0
 49
-2.54
 74
     0
 49
2.54
 74
     0
 49
-2.54
 74
     0
  0
LTYPE
  5
72
330
5
100
AcDbSymbolTableRecord
100
AcDbLinetypeTableRecord
  2
DOT2
 70
     0
  3
Dot (.5x) ........................................
 72
    65
 73
     2
 40
0.635
 49
0.0
 74
     0
 49
-0.635
 74
     0
  0
ENDTAB
  0
TABLE
  2
LAYER
  5
2
330
0
100
AcDbSymbolTable
 70
    13
  0
LAYER
  5
10
330
2
100
AcDbSymbolTableRecord
100
AcDbLayerTableRecord
  2
0
 70
     0
 62
     7
  6
Continuous
370
    -3
390
F
  0
LAYER
  5
73
330
2
100
AcDbSymbolTableRecord
100
AcDbLayerTableRecord
  2
FORMAT
 70
     0
 62
     7
  6
Continuous
370
    -3
390
F
  0
LAYER
  5
74
330
2
100
AcDbSymbolTableRecord
100
AcDbLayerTableRecord
  2
OSA
 70
     0
 62
     7
  6
CENTER
370
    -3
390
F
  0
LAYER
  5
75
330
2
100
AcDbSymbolTableRecord
100
AcDbLayerTableRecord
  2
0_35
 70
     0
 62
     7
  6
Continuous
370
    35
390
F
  0
LAYER
  5
76
330
2
100
AcDbSymbolTableRecord
100
AcDbLayerTableRecord
  2
0_5
 70
     0
 62
     7
  6
Continuous
370
    50
390
F
  0
LAYER
  5
77
330
2
100
AcDbSymbolTableRecord
100
AcDbLayerTableRecord
  2
0_25
 70
     0
 62
     7
  6
Continuous
370
    25
390
F
  0
LAYER
  5
78
330
2
100
AcDbSymbolTableRecord
100
AcDbLayerTableRecord
  2
0_18
 70
     0
 62
     7
  6
Continuous
370
    -3
390
F
  0
LAYER
  5
79
330
2
100
AcDbSymbolTableRecord
100
AcDbLayerTableRecord
  2
SLD-0
 70
     0
 62
   179
  6
Continuous
370
    -3
390
F
  0
LAYER
  5
7A
330
2
100
AcDbSymbolTableRecord
100
AcDbLayerTableRecord
  2
KOTY
 70
     0
 62
     7
  6
Continuous
370
    -3
390
F
  0
LAYER
  5
7B
330
2
100
AcDbSymbolTableRecord
100
AcDbLayerTableRecord
  2
SILNA
 70
     0
 62
   179
  6
Continuous
370
    -3
390
F
  0
LAYER
  5
7C
330
2
100
AcDbSymbolTableRecord
100
AcDbLayerTableRecord
  2
0_18_1
 70
     0
 62
   179
  6
Continuous
370
    -3
390
F
  0
LAYER
  5
7D
330
2
100
AcDbSymbolTableRecord
100
AcDbLayerTableRecord
  2
0_35_1
 70
     0
 62
   179
  6
Continuous
370
    35
390
F
  0
LAYER
  5
7E
330
2
100
AcDbSymbolTableRecord
100
AcDbLayerTableRecord
  2
0_5_1
 70
     0
 62
   179
  6
Continuous
370
    50
390
F
  0
ENDTAB
  0
TABLE
  2
STYLE
  5
3
330
0
100
AcDbSymbolTable
 70
     1
  0
STYLE
  5
11
330
3
100
AcDbSymbolTableRecord
100
AcDbTextStyleTableRecord
  2
Standard
 70
     0
 40
0.0
 41
1.0
 50
0.0
 71
     0
 42
2.0
  3
txt
  4

  0
ENDTAB
  0
TABLE
  2
VIEW
  5
6
330
0
100
AcDbSymbolTable
 70
     0
  0
ENDTAB
  0
TABLE
  2
UCS
  5
7
330
0
100
AcDbSymbolTable
 70
     0
  0
ENDTAB
  0
TABLE
  2
APPID
  5
9
330
0
100
AcDbSymbolTable
 70
     1
  0
APPID
  5
12
330
9
100
AcDbSymbolTableRecord
100
AcDbRegAppTableRecord
  2
ACAD
 70
     0
  0
ENDTAB
  0
TABLE
  2
DIMSTYLE
  5
A
330
0
100
AcDbSymbolTable
 70
     1
100
AcDbDimStyleTable
  0
DIMSTYLE
105
27
330
A
100
AcDbSymbolTableRecord
100
AcDbDimStyleTableRecord
  2
ISO-25
 70
     0
 41
2.5
 42
0.625
 43
3.75
 44
1.25
 73
     0
 74
     0
 77
     1
 78
     8
140
2.5
141
2.5
143
0.0393700787
147
0.625
171
     3
172
     1
178
     0
271
     2
272
     2
274
     3
278
    44
283
     0
284
     8
340
11
  0
ENDTAB
  0
TABLE
  2
BLOCK_RECORD
  5
1
330
0
100
AcDbSymbolTable
 70
     1
  0
BLOCK_RECORD
  5
1F
330
1
100
AcDbSymbolTableRecord
100
AcDbBlockTableRecord
  2
*Model_Space
340
22
  0
BLOCK_RECORD
  5
1B
330
1
100
AcDbSymbolTableRecord
100
AcDbBlockTableRecord
  2
*Paper_Space
340
1E
  0
BLOCK_RECORD
  5
23
330
1
100
AcDbSymbolTableRecord
100
AcDbBlockTableRecord
  2
*Paper_Space0
340
26
  0
ENDTAB
  0
ENDSEC
  0
SECTION
  2
BLOCKS
  0
BLOCK
  5
20
330
1F
100
AcDbEntity
  8
0
100
AcDbBlockBegin
  2
*Model_Space
 70
     0
 10
0.0
 20
0.0
 30
0.0
  3
*Model_Space
  1

  0
ENDBLK
  5
21
330
1F
100
AcDbEntity
  8
0
100
AcDbBlockEnd
  0
BLOCK
  5
1C
330
1B
100
AcDbEntity
 67
     1
  8
0
100
AcDbBlockBegin
  2
*Paper_Space
 70
     0
 10
0.0
 20
0.0
 30
0.0
  3
*Paper_Space
  1

  0
ENDBLK
  5
1D
330
1B
100
AcDbEntity
 67
     1
  8
0
100
AcDbBlockEnd
  0
BLOCK
  5
24
330
23
100
AcDbEntity
  8
0
100
AcDbBlockBegin
  2
*Paper_Space0
 70
     0
 10
0.0
 20
0.0
 30
0.0
  3
*Paper_Space0
  1

  0
ENDBLK
  5
25
330
23
100
AcDbEntity
  8
0
100
AcDbBlockEnd
  0
ENDSEC
  0
SECTION
  2
ENTITIES
  0
LINE
  5
7F
330
1F
100
AcDbEntity
  8
0
  6
Continuous
 62
     7
370
    25
100
AcDbLine
 10
2511.95403012
 20
7312.3663938885
 30
0.0
 11
2508.5925915076
 21
7312.3663938885
 31
0.0
  0
LINE
  5
80
330
1F
100
AcDbEntity
  8
0
  6
Continuous
 62
     7
370
    25
100
AcDbLine
 10
2515.2013397855
 20
7312.3663938885
 30
0.0
 11
2513.9486494511
 21
7312.3663938885
 31
0.0
  0
LINE
  5
81
330
1F
100
AcDbEntity
  8
0
  6
Continuous
 62
     7
370
    25
100
AcDbLine
 10
2508.5927333474
 20
7304.4663938885
 30
0.0
 11
2515.2013397855
 21
7304.4663938885
 31
0.0
  0
LINE
  5
82
330
1F
100
AcDbEntity
  8
0
  6
Continuous
 62
     7
370
    25
100
AcDbLine
 10
2515.2013397855
 20
7304.4663938885
 30
0.0
 11
2515.4513397855
 21
7304.7163938885
 31
0.0
  0
LINE
  5
83
330
1F
100
AcDbEntity
  8
0
  6
Continuous
 62
     7
370
    25
100
AcDbLine
 10
2515.4513397855
 20
7312.1163938885
 30
0.0
 11
2515.2013397855
 21
7312.3663938885
 31
0.0
  0
LINE
  5
84
330
1F
100
AcDbEntity
  8
0
  6
Continuous
 62
     7
370
    25
100
AcDbLine
 10
2513.9513397855
 20
7312.3663938885
 30
0.0
 11
2513.9513397855
 21
7320.1143790013
 31
0.0
  0
LINE
  5
85
330
1F
100
AcDbEntity
  8
0
  6
Continuous
 62
     7
370
    25
100
AcDbLine
 10
2511.9513397855
 20
7320.1143790013
 30
0.0
 11
2511.9513397855
 21
7312.3663938885
 31
0.0
  0
ARC
  5
86
330
1F
100
AcDbEntity
  8
0
  6
Continuous
 62
     7
370
    25
100
AcDbCircle
 10
2512.9513397855
 20
7318.5979735237
 30
0.0
 40
1.81666666666748
100
AcDbArc
 50
56.6164821083
 51
123.3835178917
  0
LINE
  5
87
330
1F
100
AcDbEntity
  8
0
  6
Continuous
 62
     7
370
    25
100
AcDbLine
 10
2491.6245448663
 20
7324.3719765061
 30
0.0
 11
2491.6245448663
 21
7324.1951998108
 31
0.0
  0
LINE
  5
88
330
1F
100
AcDbEntity
  8
0
  6
Continuous
 62
     7
370
    25
100
AcDbLine
 10
2500.8745448663
 20
7324.1951998108
 30
0.0
 11
2500.8745448663
 21
7324.3719765061
 31
0.0
  0
LINE
  5
89
330
1F
100
AcDbEntity
  8
0
  6
Continuous
 62
     7
370
    25
100
AcDbLine
 10
2499.9995448663
 20
7324.1951998108
 30
0.0
 11
2499.9995448663
 21
7324.5487532014
 31
0.0
  0
LINE
  5
8A
330
1F
100
AcDbEntity
  8
0
  6
Continuous
 62
     7
370
    25
100
AcDbLine
 10
2492.4995448663
 20
7324.5487532014
 30
0.0
 11
2492.4995448663
 21
7324.1951998108
 31
0.0
  0
LINE
  5
8B
330
1F
100
AcDbEntity
  8
0
  6
Continuous
 62
     7
370
    25
100
AcDbLine
 10
2483.7995448663
 20
7345.8163938885
 30
0.0
 11
2483.9495448663
 21
7345.6663938885
 31
0.0
  0
LINE
  5
8C
330
1F
100
AcDbEntity
  8
0
  6
Continuous
 62
     7
370
    25
100
AcDbLine
 10
2508.5495448663
 20
7345.6663938885
 30
0.0
 11
2508.6995448663
 21
7345.8163938885
 31
0.0
  0
LINE
  5
8D
330
1F
100
AcDbEntity
  8
0
  6
Continuous
 62
     7
370
    25
100
AcDbLine
 10
2508.6995448663
 20
7346.6663938885
 30
0.0
 11
2508.1995448663
 21
7347.1663938885
 31
0.0
  0
LINE
  5
8E
330
1F
100
AcDbEntity
  8
0
  6
Continuous
 62
     7
370
    25
100
AcDbLine
 10
2484.2995448663
 20
7347.1663938885
 30
0.0
 11
2483.7995448663
 21
7346.6663938885
 31
0.0
  0
LINE
  5
8F
330
1F
100
AcDbEntity
  8
0
  6
Continuous
 62
     7
370
    25
100
AcDbLine
 10
2483.7995448663
 20
7346.6663938885
 30
0.0
 11
2483.7995448663
 21
7345.8163938885
 31
0.0
  0
LINE
  5
90
330
1F
100
AcDbEntity
  8
0
  6
Continuous
 62
     7
370
    25
100
AcDbLine
 10
2508.6995448663
 20
7345.8163938885
 30
0.0
 11
2508.6995448663
 21
7346.6663938885
 31
0.0
  0
LINE
  5
91
330
1F
100
AcDbEntity
  8
0
  6
Continuous
 62
     7
370
    25
100
AcDbLine
 10
2483.8745448663
 20
7279.2663938885
 30
0.0
 11
2483.9745448663
 21
7279.1663938885
 31
0.0
  0
LINE
  5
92
330
1F
100
AcDbEntity
  8
0
  6
Continuous
 62
     7
370
    25
100
AcDbLine
 10
2508.5245448663
 20
7279.1663938885
 30
0.0
 11
2508.6245448663
 21
7279.2663938885
 31
0.0
  0
LINE
  5
93
330
1F
100
AcDbEntity
  8
0
  6
Continuous
 62
     7
370
    25
100
AcDbLine
 10
2508.6245448663
 20
7345.5663938885
 30
0.0
 11
2508.5245448663
 21
7345.6663938885
 31
0.0
  0
LINE
  5
94
330
1F
100
AcDbEntity
  8
0
  6
Continuous
 62
     7
370
    25
100
AcDbLine
 10
2483.9745448663
 20
7345.6663938885
 30
0.0
 11
2483.8745448663
 21
7345.5663938885
 31
0.0
  0
LINE
  5
95
330
1F
100
AcDbEntity
  8
0
  6
Continuous
 62
     7
370
    25
100
AcDbLine
 10
2483.8745448663
 20
7345.5663938885
 30
0.0
 11
2483.8745448663
 21
7279.2663938885
 31
0.0
  0
LINE
  5
96
330
1F
100
AcDbEntity
  8
0
  6
Continuous
 62
     7
370
    25
100
AcDbLine
 10
2508.6245448663
 20
7312.4663938885
 30
0.0
 11
2508.6245448663
 21
7345.5663938885
 31
0.0
  0
LINE
  5
97
330
1F
100
AcDbEntity
  8
0
  6
Continuous
 62
     7
370
    25
100
AcDbLine
 10
2508.6245448663
 20
7279.2663938885
 30
0.0
 11
2508.6245448663
 21
7304.4213655276
 31
0.0
  0
LINE
  5
98
330
1F
100
AcDbEntity
  8
0
  6
Continuous
 62
     7
370
    25
100
AcDbLine
 10
2511.2495448663
 20
7277.1663938885
 30
0.0
 11
2511.2495448663
 21
7278.1965573553
 31
0.0
  0
LINE
  5
99
330
1F
100
AcDbEntity
  8
0
  6
Continuous
 62
     7
370
    25
100
AcDbLine
 10
2481.2495448663
 20
7278.1965573553
 30
0.0
 11
2481.2495448663
 21
7277.1663938885
 31
0.0
  0
LINE
  5
9A
330
1F
100
AcDbEntity
  8
0
  6
Continuous
 62
     7
370
    25
100
AcDbLine
 10
2511.2495448663
 20
7278.1965573553
 30
0.0
 11
2511.0080634097
 21
7278.6148155072
 31
0.0
  0
LINE
  5
9B
330
1F
100
AcDbEntity
  8
0
  6
Continuous
 62
     7
370
    25
100
AcDbLine
 10
2481.4910263229
 20
7278.6148155072
 30
0.0
 11
2481.2495448663
 21
7278.1965573553
 31
0.0
  0
LINE
  5
9C
330
1F
100
AcDbEntity
  8
0
  6
Continuous
 62
     7
370
    25
100
AcDbLine
 10
2511.0080634097
 20
7278.6148155072
 30
0.0
 11
2508.9495448663
 21
7279.1663938885
 31
0.0
  0
LINE
  5
9D
330
1F
100
AcDbEntity
  8
0
  6
Continuous
 62
     7
370
    25
100
AcDbLine
 10
2483.5495448663
 20
7279.1663938885
 30
0.0
 11
2481.4910263229
 21
7278.6148155072
 31
0.0
  0
LINE
  5
9E
330
1F
100
AcDbEntity
  8
0
  6
Continuous
 62
     7
370
    25
100
AcDbLine
 10
2515.2013397855
 20
7312.3663938885
 30
0.0
 11
2515.2013397855
 21
7304.4663938885
 31
0.0
  0
SPLINE
  5
9F
330
1F
100
AcDbEntity
  8
0
  6
Continuous
 62
     7
370
    25
100
AcDbSpline
210
0.0
220
0.0
230
1.0
 70
     8
 71
     3
 72
    12
 73
     8
 74
     0
 42
0.00000001
 43
0.00000001
 40
0.0
 40
0.0
 40
0.0
 40
0.0
 40
0.2204390185785152
 40
0.4407039217952854
 40
0.6654568743993448
 40
0.8933650617500906
 40
1.0
 40
1.0
 40
1.0
 40
1.0
 10
2512.951339785543
 20
7312.255615465851
 30
0.0
 10
2513.061679570065
 20
7312.258276284639
 30
0.0
 10
2513.282271986429
 20
7312.263595820546
 30
0.0
 10
2513.578679252472
 20
7312.300589154132
 30
0.0
 10
2513.803099598133
 20
7312.339521370842
 30
0.0
 10
2513.9300890909
 20
7312.36581295263
 30
0.0
 10
2513.933527253404
 20
7312.36359609296
 30
0.0
 10
2513.934623160682
 20
7312.362889473466
 30
0.0
  0
SPLINE
  5
A0
330
1F
100
AcDbEntity
  8
0
  6
Continuous
 62
     7
370
    25
100
AcDbSpline
210
0.0
220
0.0
230
1.0
 70
     8
 71
     3
 72
    12
 73
     8
 74
     0
 42
0.00000001
 43
0.00000001
 40
0.0
 40
0.0
 40
0.0
 40
0.0
 40
0.1438308127435485
 40
0.3622114039269891
 40
0.5859693004743188
 40
0.8139244885110533
 40
0.9999999999999999
 40
0.9999999999999999
 40
0.9999999999999999
 40
0.9999999999999999
 10
2511.966307046485
 20
7312.363355812055
 30
0.0
 10
2511.97138212766
 20
7312.363386573094
 30
0.0
 10
2511.984162784615
 20
7312.363464039107
 30
0.0
 10
2512.125348972691
 20
7312.334625554835
 30
0.0
 10
2512.35990183344
 20
7312.295092670464
 30
0.0
 10
2512.651341965017
 20
7312.261708984188
 30
0.0
 10
2512.858319172066
 20
7312.257504888957
 30
0.0
 10
2512.951339785543
 20
7312.255615465851
 30
0.0
  0
LINE
  5
A1
330
1F
100
AcDbEntity
  8
0
  6
Continuous
 62
     7
370
    25
100
AcDbLine
 10
2515.4513397855
 20
7312.1163938885
 30
0.0
 11
2515.4513397855
 21
7304.7163938885
 31
0.0
  0
ARC
  5
A2
330
1F
100
AcDbEntity
  8
0
  6
Continuous
 62
     7
370
    25
100
AcDbCircle
 10
2512.9513397855
 20
7301.8517945142
 30
0.0
 40
18.28994237686102
100
AcDbArc
 50
86.8657985413
 51
93.1342014587
  0
SPLINE
  5
A3
330
1F
100
AcDbEntity
  8
0
  6
Continuous
 62
     7
370
    25
100
AcDbSpline
210
0.0
220
0.0
230
1.0
 70
    11
 71
     3
 72
    32
 73
    28
 74
     0
 42
0.00000001
 43
0.00000001
 40
0.0
 40
0.0
 40
0.0
 40
0.0
 40
0.0496855407849575
 40
0.0992631569229186
 40
0.1516714646248196
 40
0.1797885347264822
 40
0.2078863496849142
 40
0.2343642092798271
 40
0.2608335409170216
 40
0.30794308863565
 40
0.3561912370491114
 40
0.4099717737730009
 40
0.4380083457949333
 40
0.4660284699181607
 40
0.5174790509796133
 40
0.5653832098477508
 40
0.6147615632046928
 40
0.668666167053108
 40
0.6967256476003976
 40
0.7247633019586117
 40
0.7754210372527016
 40
0.822066288875422
 40
0.8718637836234295
 40
0.9270007553400262
 40
0.9545971343909108
 40
0.9821792426662183
 40
1.0
 40
1.0
 40
1.0
 40
1.0
 10
2496.249544866299
 20
7288.270413671567
 30
0.0
 10
2496.831702132222
 20
7288.324759687726
 30
0.0
 10
2497.994752128824
 20
7288.433333672129
 30
0.0
 10
2499.560693636459
 20
7289.270984226248
 30
0.0
 10
2500.611968703789
 20
7290.323416029572
 30
0.0
 10
2501.239205896517
 20
7291.393254910763
 30
0.0
 10
2501.57483389286
 20
7292.287156094755
 30
0.0
 10
2501.746403331886
 20
7293.217770138621
 30
0.0
 10
2501.767701777976
 20
7294.390752048762
 30
0.0
 10
2501.452485200223
 20
7295.794925060105
 30
0.0
 10
2500.599323460767
 20
7297.284014485374
 30
0.0
 10
2499.491798924035
 20
7298.289956505124
 30
0.0
 10
2498.373372820494
 20
7298.873153379054
 30
0.0
 10
2497.184748436094
 20
7299.252234265951
 30
0.0
 10
2495.665525109523
 20
7299.333664199411
 30
0.0
 10
2493.975685835172
 20
7298.872808800661
 30
0.0
 10
2492.509162406835
 20
7297.930152065177
 30
0.0
 10
2491.557383590229
 20
7296.757756251715
 30
0.0
 10
2491.036369330994
 20
7295.606682070943
 30
0.0
 10
2490.725859561848
 20
7294.405439023052
 30
0.0
 10
2490.727143515986
 20
7292.906790356112
 30
0.0
 10
2491.257421931989
 20
7291.269956027838
 30
0.0
 10
2492.256716624564
 20
7289.848431237275
 30
0.0
 10
2493.489679953173
 20
7288.937410425368
 30
0.0
 10
2494.676458657307
 20
7288.474022269216
 30
0.0
 10
2495.511858009989
 20
7288.295134895978
 30
0.0
 10
2496.041614066976
 20
7288.277381809751
 30
0.0
 10
2496.249544866299
 20
7288.270413671567
 30
0.0
  0
ARC
  5
A4
330
1F
100
AcDbEntity
  8
0
  6
Continuous
 62
     7
370
    25
100
AcDbCircle
 10
2496.2465927099
 20
7327.3313213729
 30
0.0
 40
6.406897796096986
100
AcDbArc
 50
255.855693961
 51
273.4799239048
  0
ARC
  5
A5
330
1F
100
AcDbEntity
  8
0
  6
Continuous
 62
     7
370
    25
100
AcDbCircle
 10
2496.2799284274
 20
7326.8004162303
 30
0.0
 40
6.227890297302339
100
AcDbArc
 50
273.2728416264
 51
286.8978847609
  0
LINE
  5
A6
330
1F
100
AcDbEntity
  8
0
  6
Continuous
 62
     7
370
    25
100
AcDbLine
 10
2498.0901698059
 20
7321.1949727501
 30
0.0
 11
2498.0901698059
 21
7320.8414193595
 31
0.0
  0
ARC
  5
A7
330
1F
100
AcDbEntity
  8
0
  6
Continuous
 62
     7
370
    25
100
AcDbCircle
 10
2496.6483175395
 20
7326.0187355281
 30
0.0
 40
5.034642519303895
100
AcDbArc
 50
286.6417277581
 51
305.386198582
  0
ARC
  5
A8
330
1F
100
AcDbEntity
  8
0
  6
Continuous
 62
     7
370
    25
100
AcDbCircle
 10
2497.6972203133
 20
7324.2735929908
 30
0.0
 40
3.288279202476418
100
AcDbArc
 50
309.3327489519
 51
330.2215658007
  0
LINE
  5
A9
330
1F
100
AcDbEntity
  8
0
  6
Continuous
 62
     7
370
    25
100
AcDbLine
 10
2500.5512903034
 20
7322.9940313809
 30
0.0
 11
2500.5512903034
 21
7322.6404779903
 31
0.0
  0
ARC
  5
AA
330
1F
100
AcDbEntity
  8
0
  6
Continuous
 62
     7
370
    25
100
AcDbCircle
 10
2498.4538564718
 20
7324.2000631601
 30
0.0
 40
2.419450625779186
100
AcDbArc
 50
330.100947763
 51
6.3605162396
  0
LINE
  5
AB
330
1F
100
AcDbEntity
  8
0
  6
Continuous
 62
     7
370
    25
100
AcDbLine
 10
2500.8584141664
 20
7324.4680997689
 30
0.0
 11
2500.8584141664
 21
7324.1145463784
 31
0.0
  0
ARC
  5
AC
330
1F
100
AcDbEntity
  8
0
  6
Continuous
 62
     7
370
    25
100
AcDbCircle
 10
2498.341711063
 20
7323.7986775761
 30
0.0
 40
2.536447833283978
100
AcDbArc
 50
7.1537274672
 51
32.0099799123
  0
LINE
  5
AD
330
1F
100
AcDbEntity
  8
0
  6
Continuous
 62
     7
370
    25
100
AcDbLine
 10
2500.4925066657
 20
7325.4967181872
 30
0.0
 11
2500.4925066657
 21
7325.1431647967
 31
0.0
  0
ARC
  5
AE
330
1F
100
AcDbEntity
  8
0
  6
Continuous
 62
     7
370
    25
100
AcDbCircle
 10
2497.5950925008
 20
7323.6742099195
 30
0.0
 40
3.422943941878692
100
AcDbArc
 50
32.1703853282
 51
52.8521803244
  0
LINE
  5
AF
330
1F
100
AcDbEntity
  8
0
  6
Continuous
 62
     7
370
    25
100
AcDbLine
 10
2499.2356076439
 20
7326.6564064507
 30
0.0
 11
2499.2356076439
 21
7326.3390504813
 31
0.0
  0
ARC
  5
B0
330
1F
100
AcDbEntity
  8
0
  6
Continuous
 62
     7
370
    25
100
AcDbCircle
 10
2496.5549772155
 20
7321.7943241692
 30
0.0
 40
5.27639239874586
100
AcDbArc
 50
59.4664851876
 51
74.6889829521
  0
LINE
  5
B1
330
1F
100
AcDbEntity
  8
0
  6
Continuous
 62
     7
370
    25
100
AcDbLine
 10
2497.9482535506
 20
7327.1489646523
 30
0.0
 11
2497.9482535506
 21
7326.8834397898
 31
0.0
  0
LINE
  5
B2
330
1F
100
AcDbEntity
  8
0
  6
Continuous
 62
     7
370
    25
100
AcDbLine
 10
2495.8636060443
 20
7327.349734945
 30
0.0
 11
2495.8636060443
 21
7327.1006091559
 31
0.0
  0
ARC
  5
B3
330
1F
100
AcDbEntity
  8
0
  6
Continuous
 62
     7
370
    25
100
AcDbCircle
 10
2496.2191613052
 20
7320.8828766101
 30
0.0
 40
6.22789029734725
100
AcDbArc
 50
93.2728416265
 51
106.8978847609
  0
LINE
  5
B4
330
1F
100
AcDbEntity
  8
0
  6
Continuous
 62
     7
370
    25
100
AcDbLine
 10
2494.4089199267
 20
7327.1107761822
 30
0.0
 11
2494.4089199267
 21
7326.8418734809
 31
0.0
  0
LINE
  5
B5
330
1F
100
AcDbEntity
  8
0
  6
Continuous
 62
     7
370
    25
100
AcDbLine
 10
2492.7176821724
 20
7326.3066650499
 30
0.0
 11
2492.8369722654
 21
7326.4025707859
 31
0.0
  0
LINE
  5
B6
330
1F
100
AcDbEntity
  8
0
  6
Continuous
 62
     7
370
    25
100
AcDbLine
 10
2492.7176821724
 20
7326.3066650499
 30
0.0
 11
2492.7176821724
 21
7325.9531116593
 31
0.0
  0
ARC
  5
B7
330
1F
100
AcDbEntity
  8
0
  6
Continuous
 62
     7
370
    25
100
AcDbCircle
 10
2494.8018694193
 20
7323.4096998496
 30
0.0
 40
3.2882792024955
100
AcDbArc
 50
129.332748952
 51
150.2215658006
  0
LINE
  5
B8
330
1F
100
AcDbEntity
  8
0
  6
Continuous
 62
     7
370
    25
100
AcDbLine
 10
2491.9477994292
 20
7325.3963682407
 30
0.0
 11
2491.9477994292
 21
7325.0428148501
 31
0.0
  0
ARC
  5
B9
330
1F
100
AcDbEntity
  8
0
  6
Continuous
 62
     7
370
    25
100
AcDbCircle
 10
2494.0452332608
 20
7324.1903364615
 30
0.0
 40
2.419450625776887
100
AcDbArc
 50
150.100947763
 51
186.3605162396
  0
LINE
  5
BA
330
1F
100
AcDbEntity
  8
0
  6
Continuous
 62
     7
370
    25
100
AcDbLine
 10
2491.6406755662
 20
7323.9222998527
 30
0.0
 11
2491.6406755662
 21
7323.5687464621
 31
0.0
  0
ARC
  5
BB
330
1F
100
AcDbEntity
  8
0
  6
Continuous
 62
     7
370
    25
100
AcDbCircle
 10
2494.1573786696
 20
7323.8846152643
 30
0.0
 40
2.53644783327482
100
AcDbArc
 50
187.1537274672
 51
212.0099799123
  0
ARC
  5
BC
330
1F
100
AcDbEntity
  8
0
  6
Continuous
 62
     7
370
    25
100
AcDbCircle
 10
2495.1584117172
 20
7324.9699143954
 30
0.0
 40
3.78120598857909
100
AcDbArc
 50
218.8172663328
 51
239.9242682989
  0
LINE
  5
BD
330
1F
100
AcDbEntity
  8
0
  6
Continuous
 62
     7
370
    25
100
AcDbLine
 10
2493.2634820887
 20
7321.6977957498
 30
0.0
 11
2493.2634820887
 21
7321.3442423592
 31
0.0
  0
ARC
  5
BE
330
1F
100
AcDbEntity
  8
0
  6
Continuous
 62
     7
370
    25
100
AcDbCircle
 10
2495.9441125171
 20
7325.8889686713
 30
0.0
 40
5.276392398761579
100
AcDbArc
 50
239.4664851876
 51
254.6889829521
  0
ARC
  5
BF
330
1F
100
AcDbEntity
  8
0
  6
Continuous
 62
     7
370
    25
100
AcDbCircle
 10
2494.3212215028
 20
7324.1967475289
 30
0.0
 40
2.191327675912941
100
AcDbArc
 50
142.8196034424
 51
198.9901645252
  0
ARC
  5
C0
330
1F
100
AcDbEntity
  8
0
  6
Continuous
 62
     7
370
    25
100
AcDbCircle
 10
2495.7399868426
 20
7322.8807890799
 30
0.0
 40
4.14424872509376
100
AcDbArc
 50
108.8173383062
 51
132.5916851766
  0
ARC
  5
C1
330
1F
100
AcDbEntity
  8
0
  6
Continuous
 62
     7
370
    25
100
AcDbCircle
 10
2496.254537041
 20
7321.4374210022
 30
0.0
 40
5.675127095455696
100
AcDbArc
 50
74.0073090731
 51
93.324245223
  0
LWPOLYLINE
  5
C2
330
1F
100
AcDbEntity
  8
0
  6
Continuous
 62
     7
370
    25
100
AcDbPolyline
 90
       19
 70
   128
 43
0.0
 10
2499.1666388243
 20
7326.2575028729
 10
2499.4948031094
 20
7325.9957447194
 10
2499.9533034101
 20
7325.4792943651
 10
2500.2499316899
 20
7324.9067229171
 10
2500.3717238695
 20
7324.3030544951
 10
2500.3133570462
 20
7323.6946723058
 10
2500.0773821303
 20
7323.1081655703
 10
2499.674112358
 20
7322.5691674473
 10
2499.1211725534
 20
7322.1012347411
 10
2498.4427288393
 20
7321.7248183564
 10
2497.6684324615
 20
7321.4563694955
 10
2496.8321238872
 20
7321.3076206617
 10
2495.9703538142
 20
7321.2850728929
 10
2495.1207857298
 20
7321.3897116348
 10
2494.3205498361
 20
7321.6169636721
 10
2493.6046202816
 20
7321.9568970005
 10
2493.0042866232
 20
7322.3946549023
 10
2492.5457863225
 20
7322.9111052565
 10
2492.2491580427
 20
7323.4836767045
  0
LINE
  5
C3
330
1F
100
AcDbEntity
  8
0
  6
Continuous
 62
     7
370
    25
100
AcDbLine
 10
2500.3336852764
 20
7323.0860510131
 30
0.0
 11
2500.5512903034
 21
7322.9940313809
 31
0.0
  0
ARC
  5
C4
330
1F
100
AcDbEntity
  8
0
  6
Continuous
 62
     7
370
    25
100
AcDbCircle
 10
2497.6173796705
 20
7324.6026519041
 30
0.0
 40
3.111011797943099
100
AcDbArc
 50
308.7303444163
 51
330.8239703362
  0
LINE
  5
C5
330
1F
100
AcDbEntity
  8
0
  6
Continuous
 62
     7
370
    25
100
AcDbLine
 10
2498.0901698059
 20
7321.1949727501
 30
0.0
 11
2498.0283194479
 21
7321.3688429696
 31
0.0
  0
ARC
  5
C6
330
1F
100
AcDbEntity
  8
0
  6
Continuous
 62
     7
370
    25
100
AcDbCircle
 10
2496.27792946
 20
7326.9913381688
 30
0.0
 40
5.88866006616327
100
AcDbArc
 50
272.8783648799
 51
287.2923615074
  0
ARC
  5
C7
330
1F
100
AcDbEntity
  8
0
  6
Continuous
 62
     7
370
    25
100
AcDbCircle
 10
2495.9614327281
 20
7326.129610342
 30
0.0
 40
4.989437349113452
100
AcDbArc
 50
239.0259192754
 51
255.1295488644
  0
LINE
  5
C8
330
1F
100
AcDbEntity
  8
0
  6
Continuous
 62
     7
370
    25
100
AcDbLine
 10
2493.3936175006
 20
7321.85166574
 30
0.0
 11
2493.2634820887
 21
7321.6977957498
 31
0.0
  0
ARC
  5
C9
330
1F
100
AcDbEntity
  8
0
  6
Continuous
 62
     7
370
    25
100
AcDbCircle
 10
2494.2723764723
 20
7324.2353416882
 30
0.0
 40
2.400962672892744
100
AcDbArc
 50
186.4402066724
 51
212.723500707
  0
LINE
  5
CA
330
1F
100
AcDbEntity
  8
0
  6
Continuous
 62
     7
370
    25
100
AcDbLine
 10
2491.6406755662
 20
7323.9222998527
 30
0.0
 11
2491.8865651887
 21
7323.9660346603
 31
0.0
  0
LINE
  5
CB
330
1F
100
AcDbEntity
  8
0
  6
Continuous
 62
     7
370
    25
100
AcDbLine
 10
2492.9352871995
 20
7326.2146454177
 30
0.0
 11
2492.7176821724
 21
7326.3066650499
 31
0.0
  0
LINE
  5
CC
330
1F
100
AcDbEntity
  8
0
  6
Continuous
 62
     7
370
    25
100
AcDbLine
 10
2495.900074089
 20
7327.3516456471
 30
0.0
 11
2495.9254564024
 21
7327.2802923271
 31
0.0
  0
LINE
  5
CD
330
1F
100
AcDbEntity
  8
0
  6
Continuous
 62
     7
370
    25
100
AcDbLine
 10
2497.8181181387
 20
7327.0831231901
 30
0.0
 11
2497.8868654187
 21
7327.1644088537
 31
0.0
  0
LINE
  5
CE
330
1F
100
AcDbEntity
  8
0
  6
Continuous
 62
     7
370
    25
100
AcDbLine
 10
2500.4925066657
 20
7325.4967181872
 30
0.0
 11
2500.2466170433
 21
7325.4529833797
 31
0.0
  0
LINE
  5
CF
330
1F
100
AcDbEntity
  8
0
  6
Continuous
 62
     7
370
    25
100
AcDbLine
 10
2495.8636060443
 20
7327.1006091559
 30
0.0
 11
2495.9254564024
 21
7326.9267389365
 31
0.0
  0
ARC
  5
D0
330
1F
100
AcDbEntity
  8
0
  6
Continuous
 62
     7
370
    25
100
AcDbCircle
 10
2496.2211602725
 20
7321.0455080625
 30
0.0
 40
5.888660065912402
100
AcDbArc
 50
92.8783648796
 51
107.2923615077
  0
LINE
  5
D1
330
1F
100
AcDbEntity
  8
0
  6
Continuous
 62
     7
370
    25
100
AcDbLine
 10
2494.4089199267
 20
7326.8418734809
 30
0.0
 11
2494.4707702847
 21
7326.6680032614
 31
0.0
  0
LINE
  5
D2
330
1F
100
AcDbEntity
  8
0
  6
Continuous
 62
     7
370
    25
100
AcDbLine
 10
2495.9254564024
 20
7327.2802923271
 30
0.0
 11
2495.9254564024
 21
7326.9267389365
 31
0.0
  0
LINE
  5
D3
330
1F
100
AcDbEntity
  8
0
  6
Continuous
 62
     7
370
    25
100
AcDbLine
 10
2499.105472232
 20
7326.185180491
 30
0.0
 11
2499.2356076439
 21
7326.3390504813
 31
0.0
  0
ARC
  5
D4
330
1F
100
AcDbEntity
  8
0
  6
Continuous
 62
     7
370
    25
100
AcDbCircle
 10
2496.5376570044
 20
7321.907235889
 30
0.0
 40
4.989437349142253
100
AcDbArc
 50
59.0259192754
 51
75.1295488644
  0
LINE
  5
D5
330
1F
100
AcDbEntity
  8
0
  6
Continuous
 62
     7
370
    25
100
AcDbLine
 10
2497.8181181387
 20
7326.7295697995
 30
0.0
 11
2497.9482535506
 21
7326.8834397898
 31
0.0
  0
LINE
  5
D6
330
1F
100
AcDbEntity
  8
0
  6
Continuous
 62
     7
370
    25
100
AcDbLine
 10
2492.2491580427
 20
7323.8372300951
 30
0.0
 11
2492.1321275933
 21
7324.3719765061
 31
0.0
  0
ARC
  5
D7
330
1F
100
AcDbEntity
  8
0
  6
Continuous
 62
     7
370
    25
100
AcDbCircle
 10
2497.5697023978
 20
7324.8097630812
 30
0.0
 40
2.831310499923221
100
AcDbArc
 50
296.8549876394
 51
351.1050504054
  0
ARC
  5
D8
330
1F
100
AcDbEntity
  8
0
  6
Continuous
 62
     7
370
    25
100
AcDbCircle
 10
2495.1407167549
 20
7325.036800481
 30
0.0
 40
3.130508089230818
100
AcDbArc
 50
202.5312406149
 51
241.5712187787
  0
LINE
  5
D9
330
1F
100
AcDbEntity
  8
0
  6
Continuous
 62
     7
370
    25
100
AcDbLine
 10
2497.8181181387
 20
7327.0831231901
 30
0.0
 11
2497.8181181387
 21
7326.7295697995
 31
0.0
  0
LWPOLYLINE
  5
DA
330
1F
100
AcDbEntity
  8
0
  6
Continuous
 62
     7
370
    25
100
AcDbPolyline
 90
       30
 70
   128
 43
0.0
 10
2492.6128295721
 20
7323.5483606233
 10
2492.5012057135
 20
7324.1162897495
 10
2492.5648500277
 20
7324.6879086225
 10
2492.8007865773
 20
7325.2364889791
 10
2493.1979832314
 20
7325.7363798114
 10
2493.7378675161
 20
7326.1642067799
 10
2494.3951950421
 20
7326.4999651708
 10
2495.1392299049
 20
7326.7279552951
 10
2495.9351818613
 20
7326.8375165879
 10
2496.7458330824
 20
7326.8235260849
 10
2497.5332784182
 20
7326.6866379666
 10
2498.2606977998
 20
7326.4332529691
 10
2498.8940779054
 20
7326.0752190933
 10
2499.4038025854
 20
7325.6292776054
 10
2499.7660376801
 20
7325.1162802336
 10
2499.9638454791
 20
7324.560214165
 10
2499.9879767097
 20
7323.9870804309
 10
2499.8373030222
 20
7323.4236781277
 10
2499.5188697508
 20
7322.8963513209
 10
2499.0475664814
 20
7322.4297572259
 10
2498.4454308311
 20
7322.045713264
 10
2497.7406179937
 20
7321.7621769041
 10
2496.966084234
 20
7321.5924059912
 10
2496.1580458898
 20
7321.5443388245
 10
2495.3542859361
 20
7321.6202229713
 10
2494.592387295
 20
7321.8165101732
 10
2493.9079755001
 20
7322.1240222589
 10
2493.3330528863
 20
7322.5283803049
 10
2492.894502196
 20
7323.0106769785
 10
2492.6128295721
 20
7323.5483606233
  0
ARC
  5
DB
330
1F
100
AcDbEntity
  8
0
  6
Continuous
 62
     7
370
    25
100
AcDbCircle
 10
2494.8680061097
 20
7324.424871894
 30
0.0
 40
2.371698808823695
100
AcDbArc
 50
120.8902227384
 51
177.0058982429
  0
ARC
  5
DC
330
1F
100
AcDbEntity
  8
0
  6
Continuous
 62
     7
370
    25
100
AcDbCircle
 10
2497.7454544772
 20
7324.4647801706
 30
0.0
 40
2.255653996539502
100
AcDbArc
 50
2.133488689
 51
51.620144694
  0
LINE
  5
DD
330
1F
100
AcDbEntity
  8
0
  6
Continuous
 62
     7
370
    25
100
AcDbLine
 10
2492.9352871995
 20
7326.2146454177
 30
0.0
 11
2492.9352871995
 21
7325.8610920271
 31
0.0
  0
LINE
  5
DE
330
1F
100
AcDbEntity
  8
0
  6
Continuous
 62
     7
370
    25
100
AcDbLine
 10
2492.9352871995
 20
7325.8610920271
 30
0.0
 11
2492.7176821724
 21
7325.9531116593
 31
0.0
  0
ARC
  5
DF
330
1F
100
AcDbEntity
  8
0
  6
Continuous
 62
     7
370
    25
100
AcDbCircle
 10
2494.8817100621
 20
7323.4341943269
 30
0.0
 40
3.111011797946651
100
AcDbArc
 50
128.7303444163
 51
150.8239703362
  0
LINE
  5
E0
330
1F
100
AcDbEntity
  8
0
  6
Continuous
 62
     7
370
    25
100
AcDbLine
 10
2492.1654044562
 20
7324.9507952179
 30
0.0
 11
2491.9477994292
 21
7325.0428148501
 31
0.0
  0
LINE
  5
E1
330
1F
100
AcDbEntity
  8
0
  6
Continuous
 62
     7
370
    25
100
AcDbLine
 10
2500.4925066657
 20
7325.1431647967
 30
0.0
 11
2500.2466170433
 21
7325.0994299891
 31
0.0
  0
LINE
  5
E2
330
1F
100
AcDbEntity
  8
0
  6
Continuous
 62
     7
370
    25
100
AcDbLine
 10
2500.8584141664
 20
7324.1145463784
 30
0.0
 11
2500.6125245439
 21
7324.0708115708
 31
0.0
  0
ARC
  5
E3
330
1F
100
AcDbEntity
  8
0
  6
Continuous
 62
     7
370
    25
100
AcDbCircle
 10
2498.2267132603
 20
7323.8015045428
 30
0.0
 40
2.400962672880835
100
AcDbArc
 50
6.4402066723
 51
32.723500707
  0
LINE
  5
E4
330
1F
100
AcDbEntity
  8
0
  6
Continuous
 62
     7
370
    25
100
AcDbLine
 10
2500.2466170433
 20
7325.4529833797
 30
0.0
 11
2500.2466170433
 21
7325.0994299891
 31
0.0
  0
ARC
  5
E5
330
1F
100
AcDbEntity
  8
0
  6
Continuous
 62
     7
370
    25
100
AcDbCircle
 10
2494.2723764723
 20
7323.8817882976
 30
0.0
 40
2.400962672890237
100
AcDbArc
 50
186.4402066724
 51
212.7235007071
  0
LINE
  5
E6
330
1F
100
AcDbEntity
  8
0
  6
Continuous
 62
     7
370
    25
100
AcDbLine
 10
2491.8865651887
 20
7323.9660346603
 30
0.0
 11
2491.8865651887
 21
7323.6124812697
 31
0.0
  0
LINE
  5
E7
330
1F
100
AcDbEntity
  8
0
  6
Continuous
 62
     7
370
    25
100
AcDbLine
 10
2492.2524726893
 20
7322.937416242
 30
0.0
 11
2492.2524726893
 21
7322.5838628514
 31
0.0
  0
LINE
  5
E8
330
1F
100
AcDbEntity
  8
0
  6
Continuous
 62
     7
370
    25
100
AcDbLine
 10
2491.6406755662
 20
7323.5687464621
 30
0.0
 11
2491.8865651887
 21
7323.6124812697
 31
0.0
  0
LINE
  5
E9
330
1F
100
AcDbEntity
  8
0
  6
Continuous
 62
     7
370
    25
100
AcDbLine
 10
2492.0065830668
 20
7322.5401280438
 30
0.0
 11
2492.2524726893
 21
7322.5838628514
 31
0.0
  0
LINE
  5
EA
330
1F
100
AcDbEntity
  8
0
  6
Continuous
 62
     7
370
    25
100
AcDbLine
 10
2500.3336852764
 20
7323.0860510131
 30
0.0
 11
2500.3336852764
 21
7322.7324976225
 31
0.0
  0
LINE
  5
EB
330
1F
100
AcDbEntity
  8
0
  6
Continuous
 62
     7
370
    25
100
AcDbLine
 10
2500.3336852764
 20
7322.7324976225
 30
0.0
 11
2500.5512903034
 21
7322.6404779903
 31
0.0
  0
ARC
  5
EC
330
1F
100
AcDbEntity
  8
0
  6
Continuous
 62
     7
370
    25
100
AcDbCircle
 10
2497.6173796705
 20
7324.2490985135
 30
0.0
 40
3.111011797939264
100
AcDbArc
 50
308.7303444163
 51
330.8239703362
  0
LINE
  5
ED
330
1F
100
AcDbEntity
  8
0
  6
Continuous
 62
     7
370
    25
100
AcDbLine
 10
2499.5638025331
 20
7321.8222008134
 30
0.0
 11
2499.7814075602
 21
7321.7301811811
 31
0.0
  0
LINE
  5
EE
330
1F
100
AcDbEntity
  8
0
  6
Continuous
 62
     7
370
    25
100
AcDbLine
 10
2499.5638025331
 20
7322.1757542039
 30
0.0
 11
2499.5638025331
 21
7321.8222008134
 31
0.0
  0
LINE
  5
EF
330
1F
100
AcDbEntity
  8
0
  6
Continuous
 62
     7
370
    25
100
AcDbLine
 10
2493.3936175006
 20
7321.85166574
 30
0.0
 11
2493.3936175006
 21
7321.4981123494
 31
0.0
  0
LINE
  5
F0
330
1F
100
AcDbEntity
  8
0
  6
Continuous
 62
     7
370
    25
100
AcDbLine
 10
2494.6809715939
 20
7321.3072764315
 30
0.0
 11
2494.6809715939
 21
7320.9537230409
 31
0.0
  0
ARC
  5
F1
330
1F
100
AcDbEntity
  8
0
  6
Continuous
 62
     7
370
    25
100
AcDbCircle
 10
2495.9614327281
 20
7325.7760569514
 30
0.0
 40
4.989437349110582
100
AcDbArc
 50
239.0259192754
 51
255.1295488644
  0
LINE
  5
F2
330
1F
100
AcDbEntity
  8
0
  6
Continuous
 62
     7
370
    25
100
AcDbLine
 10
2493.3936175006
 20
7321.4981123494
 30
0.0
 11
2493.2634820887
 21
7321.3442423592
 31
0.0
  0
LINE
  5
F3
330
1F
100
AcDbEntity
  8
0
  6
Continuous
 62
     7
370
    25
100
AcDbLine
 10
2494.6809715939
 20
7320.9537230409
 30
0.0
 11
2494.550836182
 21
7320.7998530507
 31
0.0
  0
LINE
  5
F4
330
1F
100
AcDbEntity
  8
0
  6
Continuous
 62
     7
370
    25
100
AcDbLine
 10
2498.0283194479
 20
7321.3688429696
 30
0.0
 11
2498.0283194479
 21
7321.015289579
 31
0.0
  0
ARC
  5
F5
330
1F
100
AcDbEntity
  8
0
  6
Continuous
 62
     7
370
    25
100
AcDbCircle
 10
2496.27792946
 20
7326.6377847781
 30
0.0
 40
5.888660066090196
100
AcDbArc
 50
272.8783648798
 51
287.2923615075
  0
LINE
  5
F6
330
1F
100
AcDbEntity
  8
0
  6
Continuous
 62
     7
370
    25
100
AcDbLine
 10
2496.5736333302
 20
7321.1101072946
 30
0.0
 11
2496.5736333302
 21
7320.756553904
 31
0.0
  0
LINE
  5
F7
330
1F
100
AcDbEntity
  8
0
  6
Continuous
 62
     7
370
    25
100
AcDbLine
 10
2498.0901698059
 20
7320.8414193595
 30
0.0
 11
2498.0283194479
 21
7321.015289579
 31
0.0
  0
LINE
  5
F8
330
1F
100
AcDbEntity
  8
0
  6
Continuous
 62
     7
370
    25
100
AcDbLine
 10
2496.6354836883
 20
7320.5826836845
 30
0.0
 11
2496.5736333302
 21
7320.756553904
 31
0.0
  0
LINE
  5
F9
330
1F
100
AcDbEntity
  8
0
  6
Continuous
 62
     7
370
    25
100
AcDbLine
 10
2492.9586483319
 20
7332.0785778068
 30
0.0
 11
2492.9586483319
 21
7332.0662414476
 31
0.0
  0
LINE
  5
FA
330
1F
100
AcDbEntity
  8
0
  6
Continuous
 62
     7
370
    25
100
AcDbLine
 10
2492.5966942651
 20
7331.8663938885
 30
0.0
 11
2492.6097474818
 21
7331.8663938885
 31
0.0
  0
LINE
  5
FB
330
1F
100
AcDbEntity
  8
0
  6
Continuous
 62
     7
370
    25
100
AcDbLine
 10
2483.7995448663
 20
7345.8163938885
 30
0.0
 11
2508.6995448663
 21
7345.8163938885
 31
0.0
  0
LINE
  5
FC
330
1F
100
AcDbEntity
  8
0
  6
Continuous
 62
     7
370
    25
100
AcDbLine
 10
2483.9495448663
 20
7345.6663938885
 30
0.0
 11
2508.5495448663
 21
7345.6663938885
 31
0.0
  0
LINE
  5
FD
330
1F
100
AcDbEntity
  8
0
  6
Continuous
 62
     7
370
    25
100
AcDbLine
 10
2484.2995448663
 20
7347.1663938885
 30
0.0
 11
2508.1995448663
 21
7347.1663938885
 31
0.0
  0
LINE
  5
FE
330
1F
100
AcDbEntity
  8
0
  6
Continuous
 62
     7
370
    25
100
AcDbLine
 10
2483.7995448663
 20
7346.6663938885
 30
0.0
 11
2508.6995448663
 21
7346.6663938885
 31
0.0
  0
ARC
  5
FF
330
1F
100
AcDbEntity
  8
0
  6
Continuous
 62
     7
370
    25
100
AcDbCircle
 10
2496.2495448663
 20
7325.9163938885
 30
0.0
 40
6.974999999999929
100
AcDbArc
 50
160.0925511025
 51
19.9074488975
  0
LINE
  5
100
330
1F
100
AcDbEntity
  8
0
  6
Continuous
 62
     7
370
    25
100
AcDbLine
 10
2490.4478209846
 20
7328.7913938885
 30
0.0
 11
2489.6913438935
 21
7328.2913938885
 31
0.0
  0
LINE
  5
101
330
1F
100
AcDbEntity
  8
0
  6
Continuous
 62
     7
370
    25
100
AcDbLine
 10
2490.4478209846
 20
7328.7913938885
 30
0.0
 11
2502.051268748
 21
7328.7913938885
 31
0.0
  0
LINE
  5
102
330
1F
100
AcDbEntity
  8
0
  6
Continuous
 62
     7
370
    25
100
AcDbLine
 10
2502.8077458391
 20
7328.2913938885
 30
0.0
 11
2502.051268748
 21
7328.7913938885
 31
0.0
  0
LWPOLYLINE
  5
103
330
1F
100
AcDbEntity
  8
0
  6
Continuous
 62
     7
370
    25
100
AcDbPolyline
 90
       34
 70
   128
 43
0.0
 10
2496.2495448663
 20
7320.3229592382
 10
2497.1912922027
 20
7320.3865464995
 10
2498.0990023366
 20
7320.5750100741
 10
2498.9398682589
 20
7320.8815383974
 10
2499.6834988841
 20
7321.2950527371
 10
2500.3030174641
 20
7321.8006076077
 10
2500.7760329832
 20
7322.3799309387
 10
2501.0854494281
 20
7323.0120844758
 10
2501.2200836823
 20
7323.6742205429
 10
2501.1750697131
 20
7324.3424078175
 10
2500.9520344426
 20
7324.9924962704
 10
2500.5590389465
 20
7325.6009900112
 10
2500.0102871062
 20
7326.1458964908
 10
2499.3256122428
 20
7326.6075213691
 10
2498.5297602897
 20
7326.9691803203
 10
2497.6514954103
 20
7327.2178020477
 10
2496.7225603854
 20
7327.3444007143
 10
2495.7765293472
 20
7327.3444007143
 10
2494.8475943223
 20
7327.2178020477
 10
2493.9693294429
 20
7326.9691803203
 10
2493.1734774898
 20
7326.6075213691
 10
2492.4888026264
 20
7326.1458964908
 10
2491.9400507861
 20
7325.6009900112
 10
2491.54705529
 20
7324.9924962704
 10
2491.3240200195
 20
7324.3424078175
 10
2491.2790060503
 20
7323.6742205429
 10
2491.4136403045
 20
7323.0120844758
 10
2491.7230567494
 20
7322.3799309387
 10
2492.1960722685
 20
7321.8006076077
 10
2492.8155908485
 20
7321.2950527371
 10
2493.5592214737
 20
7320.8815383974
 10
2494.400087396
 20
7320.5750100741
 10
2495.3077975299
 20
7320.3865464995
 10
2496.2495448663
 20
7320.3229592382
  0
ARC
  5
104
330
1F
100
AcDbEntity
  8
0
  6
Continuous
 62
     7
370
    25
100
AcDbCircle
 10
2496.2495448663
 20
7325.9163938885
 30
0.0
 40
6.474999999999707
100
AcDbArc
 50
26.3603643512
 51
153.6396356488
  0
ARC
  5
105
330
1F
100
AcDbEntity
  8
0
  6
Continuous
 62
     7
370
    25
100
AcDbCircle
 10
2496.2495448663
 20
7325.9163938885
 30
0.0
 40
6.974999999999929
100
AcDbArc
 50
19.9074488975
 51
160.0925511025
  0
LINE
  5
106
330
1F
100
AcDbEntity
  8
0
  6
Continuous
 62
     7
370
    25
100
AcDbLine
 10
2496.2495448663
 20
7320.880636774
 30
0.0
 11
2496.5736333302
 21
7320.888568374
 31
0.0
  0
LWPOLYLINE
  5
107
330
1F
100
AcDbEntity
  8
0
  6
Continuous
 62
     7
370
    25
100
AcDbPolyline
 90
        3
 70
   128
 43
0.0
 10
2498.0901698059
 20
7321.1468596
 10
2498.8537803336
 20
7321.4392413676
 10
2499.5638025331
 20
7321.8512339015
  0
ARC
  5
108
330
1F
100
AcDbEntity
  8
0
  6
Continuous
 62
     7
370
    25
100
AcDbCircle
 10
2498.3846889954
 20
7324.203888032
 30
0.0
 40
2.539869741555461
100
AcDbArc
 50
328.5434756362
 51
44.718841696
  0
ARC
  5
109
330
1F
100
AcDbEntity
  8
0
  6
Continuous
 62
     7
370
    25
100
AcDbCircle
 10
2494.1315460342
 20
7324.1898510284
 30
0.0
 40
2.561930329806726
100
AcDbArc
 50
135.3278923335
 51
193.5261788546
  0
ARC
  5
10A
330
1F
100
AcDbEntity
  8
0
  6
Continuous
 62
     7
370
    25
100
AcDbCircle
 10
2495.196358652
 20
7325.0395239135
 30
0.0
 40
3.91042704472471
100
AcDbArc
 50
218.9786459318
 51
240.3771989044
  0
LWPOLYLINE
  5
10B
330
1F
100
AcDbEntity
  8
0
  6
Continuous
 62
     7
370
    25
100
AcDbPolyline
 90
        3
 70
   128
 43
0.0
 10
2494.6809715939
 20
7321.0717214501
 10
2495.3350589818
 20
7320.9443251733
 10
2496.2495448663
 20
7320.880636774
  0
LINE
  5
10C
330
1F
100
AcDbEntity
  8
0
  6
Continuous
 62
     7
370
    25
100
AcDbLine
 10
2483.8745448663
 20
7279.2663938885
 30
0.0
 11
2508.6245448663
 21
7279.2663938885
 31
0.0
  0
LINE
  5
10D
330
1F
100
AcDbEntity
  8
0
  6
Continuous
 62
     7
370
    25
100
AcDbLine
 10
2496.2495448663
 20
7345.5663938885
 30
0.0
 11
2483.8745448663
 21
7345.5663938885
 31
0.0
  0
LINE
  5
10E
330
1F
100
AcDbEntity
  8
0
  6
Continuous
 62
     7
370
    25
100
AcDbLine
 10
2508.6245448663
 20
7345.5663938885
 30
0.0
 11
2496.2495448663
 21
7345.5663938885
 31
0.0
  0
ARC
  5
10F
330
1F
100
AcDbEntity
  8
0
  6
Continuous
 62
     7
370
    25
100
AcDbCircle
 10
2520.6377704004
 20
7308.4171596909
 30
0.0
 40
12.67729802917029
100
AcDbArc
 50
161.37285491
 51
198.3724585861
  0
SPLINE
  5
110
330
1F
100
AcDbEntity
  8
0
  6
Continuous
 62
     7
370
    25
100
AcDbSpline
210
0.0
220
0.0
230
1.0
 70
    11
 71
     3
 72
    33
 73
    29
 74
     0
 42
0.00000001
 43
0.00000001
 40
0.0
 40
0.0
 40
0.0
 40
0.0
 40
0.050161615899915
 40
0.1002253630972409
 40
0.1528614241522966
 40
0.1808113947895595
 40
0.2087450695627835
 40
0.2351936303785786
 40
0.261635665739982
 40
0.3095711005377223
 40
0.3586243910702139
 40
0.4125009800285029
 40
0.4403426825870668
 40
0.468170444621085
 40
0.5196893334393237
 40
0.568210008191403
 40
0.6182725677582228
 40
0.6724045100301597
 40
0.7002188584766388
 40
0.7280155868228709
 40
0.7786515246278687
 40
0.8262319690602865
 40
0.8768975617618516
 40
0.9045732049168881
 40
0.9322391810697122
 40
0.9595791007515614
 40
0.9869077712557034
 40
1.0
 40
1.0
 40
1.0
 40
1.0
 10
2496.249544866299
 20
7288.141393888522
 30
0.0
 10
2495.660362946295
 20
7288.196759687758
 30
0.0
 10
2494.483148640029
 20
7288.307383263816
 30
0.0
 10
2492.899796074133
 20
7289.161907230611
 30
0.0
 10
2491.843226938288
 20
7290.23364491662
 30
0.0
 10
2491.220527803084
 20
7291.314360702404
 30
0.0
 10
2490.890717646514
 20
7292.211214388649
 30
0.0
 10
2490.724643171208
 20
7293.143362268273
 30
0.0
 10
2490.709830383486
 20
7294.328067135159
 30
0.0
 10
2491.040724888385
 20
7295.752918780051
 30
0.0
 10
2491.928041529739
 20
7297.25797203038
 30
0.0
 10
2493.066462283165
 20
7298.258783705677
 30
0.0
 10
2494.197999762411
 20
7298.8253115396
 30
0.0
 10
2495.394033383765
 20
7299.186515309611
 30
0.0
 10
2496.923295363228
 20
7299.245881109299
 30
0.0
 10
2498.625542964951
 20
7298.752444351727
 30
0.0
 10
2500.095837364359
 20
7297.766259689608
 30
0.0
 10
2501.032478098811
 20
7296.556194672292
 30
0.0
 10
2501.527814200738
 20
7295.387679759486
 30
0.0
 10
2501.810804266242
 20
7294.17953703471
 30
0.0
 10
2501.776552059279
 20
7292.67106073177
 30
0.0
 10
2501.20014030457
 20
7291.023086501032
 30
0.0
 10
2500.3277966411
 20
7289.856110247438
 30
0.0
 10
2499.38951466407
 20
7289.088586294971
 30
0.0
 10
2498.561007412379
 20
7288.617003610428
 30
0.0
 10
2497.658384288552
 20
7288.29824614771
 30
0.0
 10
2496.875267206422
 20
7288.157026443502
 30
0.0
 10
2496.402630666263
 20
7288.145218463786
 30
0.0
 10
2496.249544866299
 20
7288.141393888522
 30
0.0
  0
SPLINE
  5
111
330
1F
100
AcDbEntity
  8
0
  6
Continuous
 62
     7
370
    25
100
AcDbSpline
210
0.0
220
0.0
230
1.0
 70
     8
 71
     3
 72
    20
 73
    16
 74
     0
 42
0.00000001
 43
0.00000001
 40
0.0
 40
0.0
 40
0.0
 40
0.0
 40
0.0776334320190982
 40
0.1552920815712931
 40
0.2326476015989269
 40
0.3100426434788063
 40
0.3929703812748497
 40
0.4759103198400766
 40
0.5676591513837178
 40
0.659316660059844
 40
0.7310264934276637
 40
0.8027017951592275
 40
0.8744546835901458
 40
0.946241268445475
 40
1.0
 40
1.0
 40
1.0
 40
1.0
 10
2496.249544866299
 20
7318.916393888522
 30
0.0
 10
2495.887381163461
 20
7318.933117762657
 30
0.0
 10
2495.162936116775
 20
7318.966570943312
 30
0.0
 10
2494.110947647779
 20
7319.223833939315
 30
0.0
 10
2493.124021100572
 20
7319.623735347841
 30
0.0
 10
2492.198709458807
 20
7320.173207446589
 30
0.0
 10
2491.359128678067
 20
7320.868030233242
 30
0.0
 10
2490.598010737174
 20
7321.730304276732
 30
0.0
 10
2489.967953286553
 20
7322.74805510106
 30
0.0
 10
2489.535037423051
 20
7323.830100634727
 30
0.0
 10
2489.302298701114
 20
7324.893328322008
 30
0.0
 10
2489.222867222283
 20
7325.897893429773
 30
0.0
 10
2489.30369659511
 20
7326.897226512155
 30
0.0
 10
2489.462468774786
 20
7327.808317175335
 30
0.0
 10
2489.717035323366
 20
7328.3167555897
 30
0.0
 10
2489.82604117989
 20
7328.53446983832
 30
0.0
  0
SPLINE
  5
112
330
1F
100
AcDbEntity
  8
0
  6
Continuous
 62
     7
370
    25
100
AcDbSpline
210
0.0
220
0.0
230
1.0
 70
     8
 71
     3
 72
    20
 73
    16
 74
     0
 42
0.00000001
 43
0.00000001
 40
0.0
 40
0.0
 40
0.0
 40
0.0
 40
0.0422668825278761
 40
0.1258176188480509
 40
0.1916406470418981
 40
0.2574290731498211
 40
0.3233179666531503
 40
0.3892356639749868
 40
0.5192101313791982
 40
0.594383225836459
 40
0.6695630544317633
 40
0.7535671444572917
 40
0.8375074161536237
 40
0.9187755438901317
 40
1.0
 40
1.0
 40
1.0
 40
1.0
 10
2502.114951506078
 20
7329.686710393225
 30
0.0
 10
2502.231035449183
 20
7329.515391139103
 30
0.0
 10
2502.576587437745
 20
7329.005417861506
 30
0.0
 10
2502.924829875375
 20
7328.1077501461
 30
0.0
 10
2503.181225681328
 20
7327.051474245853
 30
0.0
 10
2503.273037293683
 20
7326.044366182926
 30
0.0
 10
2503.216914227298
 20
7325.033709908444
 30
0.0
 10
2502.957180497343
 20
7323.730034725145
 30
0.0
 10
2502.412039870986
 20
7322.480098982758
 30
0.0
 10
2501.608293465638
 20
7321.368933711699
 30
0.0
 10
2500.801636272777
 20
7320.555488289137
 30
0.0
 10
2499.826889689212
 20
7319.85748223212
 30
0.0
 10
2498.702832470406
 20
7319.322698408072
 30
0.0
 10
2497.494394426971
 20
7318.982804891972
 30
0.0
 10
2496.664420365043
 20
7318.938526922946
 30
0.0
 10
2496.249544866299
 20
7318.916393888522
 30
0.0
  0
LINE
  5
113
330
1F
100
AcDbEntity
  8
0
  6
Continuous
 62
     7
370
    25
100
AcDbLine
 10
2492.2573650106
 20
7331.6663938885
 30
0.0
 11
2492.3013649059
 21
7331.6663938885
 31
0.0
  0
LINE
  5
114
330
1F
100
AcDbEntity
  8
0
  6
Continuous
 62
     7
370
    25
100
AcDbLine
 10
2500.1977248267
 20
7331.6663938885
 30
0.0
 11
2500.241724722
 21
7331.6663938885
 31
0.0
  0
LINE
  5
115
330
1F
100
AcDbEntity
  8
0
  6
Continuous
 62
     7
370
    25
100
AcDbLine
 10
2511.2495448663
 20
7277.1663938885
 30
0.0
 11
2481.2495448663
 21
7277.1663938885
 31
0.0
  0
LINE
  5
116
330
1F
100
AcDbEntity
  8
0
  6
Continuous
 62
     7
370
    25
100
AcDbLine
 10
2511.2495448663
 20
7278.1965573553
 30
0.0
 11
2481.2495448663
 21
7278.1965573553
 31
0.0
  0
LINE
  5
117
330
1F
100
AcDbEntity
  8
0
  6
Continuous
 62
     7
370
    25
100
AcDbLine
 10
2510.99735013
 20
7278.6148155072
 30
0.0
 11
2511.0080634097
 21
7278.6148155072
 31
0.0
  0
LINE
  5
118
330
1F
100
AcDbEntity
  8
0
  6
Continuous
 62
     7
370
    25
100
AcDbLine
 10
2481.4910263229
 20
7278.6148155072
 30
0.0
 11
2510.99735013
 21
7278.6148155072
 31
0.0
  0
LINE
  5
119
330
1F
100
AcDbEntity
  8
0
  6
Continuous
 62
     7
370
    25
100
AcDbLine
 10
2508.9495448663
 20
7279.1663938885
 30
0.0
 11
2483.5495448663
 21
7279.1663938885
 31
0.0
  0
LINE
  5
11A
330
1F
100
AcDbEntity
  8
0
  6
Continuous
 62
     7
370
    25
100
AcDbLine
 10
2584.5711624326
 20
7282.6266678611
 30
0.0
 11
2584.5711624326
 21
7281.6663938885
 31
0.0
  0
LINE
  5
11B
330
1F
100
AcDbEntity
  8
0
  6
Continuous
 62
     7
370
    25
100
AcDbLine
 10
2584.5711624326
 20
7284.1663938885
 30
0.0
 11
2584.5711624326
 21
7282.7402623154
 31
0.0
  0
LINE
  5
11C
330
1F
100
AcDbEntity
  8
0
  6
Continuous
 62
     7
370
    25
100
AcDbLine
 10
2609.5777581573
 20
7299.2704136716
 30
0.0
 11
2609.5711624326
 21
7299.2704136716
 31
0.0
  0
LINE
  5
11D
330
1F
100
AcDbEntity
  8
0
  6
Continuous
 62
     7
370
    25
100
AcDbLine
 10
2609.5777581573
 20
7288.2704136716
 30
0.0
 11
2609.5777581573
 21
7299.2704136716
 31
0.0
  0
LINE
  5
11E
330
1F
100
AcDbEntity
  8
0
  6
Continuous
 62
     7
370
    25
100
AcDbLine
 10
2584.7461624326
 20
7346.6663938885
 30
0.0
 11
2584.7461624326
 21
7345.8163938885
 31
0.0
  0
LINE
  5
11F
330
1F
100
AcDbEntity
  8
0
  6
Continuous
 62
     7
370
    25
100
AcDbLine
 10
2609.6461624326
 20
7345.8163938885
 30
0.0
 11
2609.6461624326
 21
7346.6663938885
 31
0.0
  0
LINE
  5
120
330
1F
100
AcDbEntity
  8
0
  6
Continuous
 62
     7
370
    25
100
AcDbLine
 10
2584.7461624326
 20
7345.8163938885
 30
0.0
 11
2584.8961624326
 21
7345.6663938885
 31
0.0
  0
LINE
  5
121
330
1F
100
AcDbEntity
  8
0
  6
Continuous
 62
     7
370
    25
100
AcDbLine
 10
2609.4961624326
 20
7345.6663938885
 30
0.0
 11
2609.6461624326
 21
7345.8163938885
 31
0.0
  0
LINE
  5
122
330
1F
100
AcDbEntity
  8
0
  6
Continuous
 62
     7
370
    25
100
AcDbLine
 10
2609.6461624326
 20
7346.6663938885
 30
0.0
 11
2609.1461624326
 21
7347.1663938885
 31
0.0
  0
LINE
  5
123
330
1F
100
AcDbEntity
  8
0
  6
Continuous
 62
     7
370
    25
100
AcDbLine
 10
2585.2461624326
 20
7347.1663938885
 30
0.0
 11
2584.7461624326
 21
7346.6663938885
 31
0.0
  0
LINE
  5
124
330
1F
100
AcDbEntity
  8
0
  6
Continuous
 62
     7
370
    25
100
AcDbLine
 10
2609.5570771637
 20
7318.9413938885
 30
0.0
 11
2632.3461624326
 21
7318.9413938885
 31
0.0
  0
LINE
  5
125
330
1F
100
AcDbEntity
  8
0
  6
Continuous
 62
     7
370
    25
100
AcDbLine
 10
2641.6961624326
 20
7332.8913938885
 30
0.0
 11
2609.5570773172
 21
7332.8913938885
 31
0.0
  0
LINE
  5
126
330
1F
100
AcDbEntity
  8
0
  6
Continuous
 62
     7
370
    25
100
AcDbLine
 10
2642.1961624326
 20
7332.3913938885
 30
0.0
 11
2641.6961624326
 21
7332.8913938885
 31
0.0
  0
LINE
  5
127
330
1F
100
AcDbEntity
  8
0
  6
Continuous
 62
     7
370
    25
100
AcDbLine
 10
2609.5711624326
 20
7345.5663938885
 30
0.0
 11
2609.4711624326
 21
7345.6663938885
 31
0.0
  0
LINE
  5
128
330
1F
100
AcDbEntity
  8
0
  6
Continuous
 62
     7
370
    25
100
AcDbLine
 10
2584.9211624326
 20
7345.6663938885
 30
0.0
 11
2584.8211624326
 21
7345.5663938885
 31
0.0
  0
LINE
  5
129
330
1F
100
AcDbEntity
  8
0
  6
Continuous
 62
     7
370
    25
100
AcDbLine
 10
2584.8211624326
 20
7279.2663938885
 30
0.0
 11
2584.9211624326
 21
7279.1663938885
 31
0.0
  0
LINE
  5
12A
330
1F
100
AcDbEntity
  8
0
  6
Continuous
 62
     7
370
    25
100
AcDbLine
 10
2609.4711624326
 20
7279.1663938885
 30
0.0
 11
2609.5711624326
 21
7279.2663938885
 31
0.0
  0
LINE
  5
12B
330
1F
100
AcDbEntity
  8
0
  6
Continuous
 62
     7
370
    25
100
AcDbLine
 10
2584.8211624326
 20
7343.4490642292
 30
0.0
 11
2584.8211624326
 21
7284.1663938885
 31
0.0
  0
LINE
  5
12C
330
1F
100
AcDbEntity
  8
0
  6
Continuous
 62
     7
370
    25
100
AcDbLine
 10
2584.8211624326
 20
7281.6663938885
 30
0.0
 11
2584.8211624326
 21
7279.2663938885
 31
0.0
  0
LINE
  5
12D
330
1F
100
AcDbEntity
  8
0
  6
Continuous
 62
     7
370
    25
100
AcDbLine
 10
2584.8211624326
 20
7345.5663938885
 30
0.0
 11
2584.8211624326
 21
7344.6913938885
 31
0.0
  0
LINE
  5
12E
330
1F
100
AcDbEntity
  8
0
  6
Continuous
 62
     7
370
    25
100
AcDbLine
 10
2609.5711624326
 20
7332.9135887269
 30
0.0
 11
2609.5711624326
 21
7345.5663938885
 31
0.0
  0
LINE
  5
12F
330
1F
100
AcDbEntity
  8
0
  6
Continuous
 62
     7
370
    25
100
AcDbLine
 10
2609.5711624326
 20
7299.2704136716
 30
0.0
 11
2609.5711624326
 21
7318.9163938885
 31
0.0
  0
LINE
  5
130
330
1F
100
AcDbEntity
  8
0
  6
Continuous
 62
     7
370
    25
100
AcDbLine
 10
2609.5711624326
 20
7279.2663938885
 30
0.0
 11
2609.5711624326
 21
7288.1413938885
 31
0.0
  0
LINE
  5
131
330
1F
100
AcDbEntity
  8
0
  6
Continuous
 62
     7
370
    25
100
AcDbLine
 10
2612.1961624326
 20
7278.1965573553
 30
0.0
 11
2611.954680976
 21
7278.6148155072
 31
0.0
  0
LINE
  5
132
330
1F
100
AcDbEntity
  8
0
  6
Continuous
 62
     7
370
    25
100
AcDbLine
 10
2582.4376438892
 20
7278.6148155072
 30
0.0
 11
2582.1961624326
 21
7278.1965573553
 31
0.0
  0
LINE
  5
133
330
1F
100
AcDbEntity
  8
0
  6
Continuous
 62
     7
370
    25
100
AcDbLine
 10
2612.1961624326
 20
7277.1663938885
 30
0.0
 11
2612.1961624326
 21
7278.1965573553
 31
0.0
  0
LINE
  5
134
330
1F
100
AcDbEntity
  8
0
  6
Continuous
 62
     7
370
    25
100
AcDbLine
 10
2582.1961624326
 20
7278.1965573553
 30
0.0
 11
2582.1961624326
 21
7277.1663938885
 31
0.0
  0
LINE
  5
135
330
1F
100
AcDbEntity
  8
0
  6
Continuous
 62
     7
370
    25
100
AcDbLine
 10
2611.954680976
 20
7278.6148155072
 30
0.0
 11
2609.8961624326
 21
7279.1663938885
 31
0.0
  0
LINE
  5
136
330
1F
100
AcDbEntity
  8
0
  6
Continuous
 62
     7
370
    25
100
AcDbLine
 10
2584.4961624326
 20
7279.1663938885
 30
0.0
 11
2582.4376438892
 21
7278.6148155072
 31
0.0
  0
LINE
  5
137
330
1F
100
AcDbEntity
  8
0
  6
Continuous
 62
     7
370
    25
100
AcDbLine
 10
2584.5711624326
 20
7284.1663938885
 30
0.0
 11
2585.7933780422
 21
7284.1663938885
 31
0.0
  0
LINE
  5
138
330
1F
100
AcDbEntity
  8
0
  6
Continuous
 62
     7
370
    25
100
AcDbLine
 10
2585.7933780422
 20
7284.1663938885
 30
0.0
 11
2585.7933780422
 21
7281.6663938885
 31
0.0
  0
LINE
  5
139
330
1F
100
AcDbEntity
  8
0
  6
Continuous
 62
     7
370
    25
100
AcDbLine
 10
2584.5711624326
 20
7281.6663938885
 30
0.0
 11
2585.7933780422
 21
7281.6663938885
 31
0.0
  0
SPLINE
  5
13A
330
1F
100
AcDbEntity
  8
0
  6
Continuous
 62
     7
370
    25
100
AcDbSpline
210
0.0
220
0.0
230
1.0
 70
     8
 71
     3
 72
    10
 73
     6
 74
     0
 42
0.00000001
 43
0.00000001
 40
0.0
 40
0.0
 40
0.0
 40
0.0
 40
0.4990665516922463
 40
0.7492735597631919
 40
1.0
 40
1.0
 40
1.0
 40
1.0
 10
2585.382861487362
 20
7283.604750052907
 30
0.0
 10
2585.387563760524
 20
7283.603672711019
 30
0.0
 10
2585.394623518264
 20
7283.602055243794
 30
0.0
 10
2585.402865282683
 20
7283.588048007156
 30
0.0
 10
2585.405783458676
 20
7283.577610969344
 30
0.0
 10
2585.407244059642
 20
7283.572387039208
 30
0.0
  0
SPLINE
  5
13B
330
1F
100
AcDbEntity
  8
0
  6
Continuous
 62
     7
370
    25
100
AcDbSpline
210
0.0
220
0.0
230
1.0
 70
     8
 71
     3
 72
    11
 73
     7
 74
     0
 42
0.00000001
 43
0.00000001
 40
0.0
 40
0.0
 40
0.0
 40
0.0
 40
0.2502250740515308
 40
0.5000221176555736
 40
0.7497760287819357
 40
1.0
 40
1.0
 40
1.0
 40
1.0
 10
2585.364777410199
 20
7283.578679847426
 30
0.0
 10
2585.365877428238
 20
7283.582615043268
 30
0.0
 10
2585.368075582643
 20
7283.590478703475
 30
0.0
 10
2585.37254072511
 20
7283.598778413011
 30
0.0
 10
2585.377536768495
 20
7283.604188767978
 30
0.0
 10
2585.381085468955
 20
7283.604562840701
 30
0.0
 10
2585.382861487362
 20
7283.604750052907
 30
0.0
  0
SPLINE
  5
13C
330
1F
100
AcDbEntity
  8
0
  6
Continuous
 62
     7
370
    25
100
AcDbSpline
210
0.0
220
0.0
230
1.0
 70
     8
 71
     3
 72
    10
 73
     6
 74
     0
 42
0.00000001
 43
0.00000001
 40
0.0
 40
0.0
 40
0.0
 40
0.0
 40
0.2558734379475471
 40
0.6629806120860766
 40
1.0
 40
1.0
 40
1.0
 40
1.0
 10
2585.360391473487
 20
7283.542421285782
 30
0.0
 10
2585.360458664306
 20
7283.545747213046
 30
0.0
 10
2585.360632759009
 20
7283.554364853507
 30
0.0
 10
2585.36184419856
 20
7283.567268532261
 30
0.0
 10
2585.363863057062
 20
7283.575122664002
 30
0.0
 10
2585.364777410199
 20
7283.578679847426
 30
0.0
  0
SPLINE
  5
13D
330
1F
100
AcDbEntity
  8
0
  6
Continuous
 62
     7
370
    25
100
AcDbSpline
210
0.0
220
0.0
230
1.0
 70
     8
 71
     3
 72
    10
 73
     6
 74
     0
 42
0.00000001
 43
0.00000001
 40
0.0
 40
0.0
 40
0.0
 40
0.0
 40
0.4205323629123043
 40
0.7090838547940549
 40
1.0
 40
1.0
 40
1.0
 40
1.0
 10
2585.361747768644
 20
7283.519047998112
 30
0.0
 10
2585.36140677104
 20
7283.522243389924
 30
0.0
 10
2585.360831795325
 20
7283.527631324228
 30
0.0
 10
2585.36049883075
 20
7283.535528065046
 30
0.0
 10
2585.360427356464
 20
7283.540117303051
 30
0.0
 10
2585.360391473487
 20
7283.542421285782
 30
0.0
  0
LINE
  5
13E
330
1F
100
AcDbEntity
  8
0
  6
Continuous
 62
     7
370
    25
100
AcDbLine
 10
2585.5124461554
 20
7282.8951610118
 30
0.0
 11
2585.3617477686
 21
7283.5190479981
 31
0.0
  0
LINE
  5
13F
330
1F
100
AcDbEntity
  8
0
  6
Continuous
 62
     7
370
    25
100
AcDbLine
 10
2585.3655095429
 20
7282.2880548474
 30
0.0
 11
2585.5124461554
 21
7282.8951610118
 31
0.0
  0
SPLINE
  5
140
330
1F
100
AcDbEntity
  8
0
  6
Continuous
 62
     7
370
    25
100
AcDbSpline
210
0.0
220
0.0
230
1.0
 70
     8
 71
     3
 72
     9
 73
     5
 74
     0
 42
0.00000001
 43
0.00000001
 40
0.0
 40
0.0
 40
0.0
 40
0.0
 40
0.500046113259848
 40
1.0
 40
1.0
 40
1.0
 40
1.0
 10
2585.360391473487
 20
7282.236813409071
 30
0.0
 10
2585.360564369851
 20
7282.245913050418
 30
0.0
 10
2585.360910130691
 20
7282.264110654812
 30
0.0
 10
2585.363976499749
 20
7282.280073940635
 30
0.0
 10
2585.365509542877
 20
7282.288054847428
 30
0.0
  0
SPLINE
  5
141
330
1F
100
AcDbEntity
  8
0
  6
Continuous
 62
     7
370
    25
100
AcDbSpline
210
0.0
220
0.0
230
1.0
 70
     8
 71
     3
 72
    10
 73
     6
 74
     0
 42
0.00000001
 43
0.00000001
 40
0.0
 40
0.0
 40
0.0
 40
0.0
 40
0.250327941372281
 40
0.4999666459574915
 40
1.0
 40
1.0
 40
1.0
 40
1.0
 10
2585.375372669192
 20
7282.188568546057
 30
0.0
 10
2585.373412962029
 20
7282.190032839512
 30
0.0
 10
2585.369498943436
 20
7282.192957394733
 30
0.0
 10
2585.363568745048
 20
7282.209475140648
 30
0.0
 10
2585.361662766497
 20
7282.225874794326
 30
0.0
 10
2585.360391473487
 20
7282.236813409071
 30
0.0
  0
LINE
  5
142
330
1F
100
AcDbEntity
  8
0
  6
Continuous
 62
     7
370
    25
100
AcDbLine
 10
2585.3827557781
 20
7282.1855719707
 30
0.0
 11
2585.3753726692
 21
7282.1885685461
 31
0.0
  0
SPLINE
  5
143
330
1F
100
AcDbEntity
  8
0
  6
Continuous
 62
     7
370
    25
100
AcDbSpline
210
0.0
220
0.0
230
1.0
 70
     8
 71
     3
 72
    10
 73
     6
 74
     0
 42
0.00000001
 43
0.00000001
 40
0.0
 40
0.0
 40
0.0
 40
0.0
 40
0.2502237850971473
 40
0.5004141625172195
 40
1.0
 40
1.0
 40
1.0
 40
1.0
 10
2585.402853003988
 20
7282.204150737838
 30
0.0
 10
2585.401441141825
 20
7282.200921046645
 30
0.0
 10
2585.398617605998
 20
7282.194462095457
 30
0.0
 10
2585.391733002215
 20
7282.187340176268
 30
0.0
 10
2585.38634552536
 20
7282.186279027929
 30
0.0
 10
2585.382755778069
 20
7282.185571970715
 30
0.0
  0
LINE
  5
144
330
1F
100
AcDbEntity
  8
0
  6
Continuous
 62
     7
370
    25
100
AcDbLine
 10
2585.5426489421
 20
7282.7986712858
 30
0.0
 11
2585.402853004
 21
7282.2041507378
 31
0.0
  0
LINE
  5
145
330
1F
100
AcDbEntity
  8
0
  6
Continuous
 62
     7
370
    25
100
AcDbLine
 10
2585.6858061477
 20
7282.2203322447
 30
0.0
 11
2585.5426489421
 21
7282.7986712858
 31
0.0
  0
SPLINE
  5
146
330
1F
100
AcDbEntity
  8
0
  6
Continuous
 62
     7
370
    25
100
AcDbSpline
210
0.0
220
0.0
230
1.0
 70
     8
 71
     3
 72
     9
 73
     5
 74
     0
 42
0.00000001
 43
0.00000001
 40
0.0
 40
0.0
 40
0.0
 40
0.0
 40
0.4998923417080742
 40
1.0
 40
1.0
 40
1.0
 40
1.0
 10
2585.703600995709
 20
7282.185571970715
 30
0.0
 10
2585.700161317218
 20
7282.189960645446
 30
0.0
 10
2585.693280478677
 20
7282.198739885228
 30
0.0
 10
2585.688297948995
 20
7282.213133758453
 30
0.0
 10
2585.685806147743
 20
7282.220332244688
 30
0.0
  0
SPLINE
  5
147
330
1F
100
AcDbEntity
  8
0
  6
Continuous
 62
     7
370
    25
100
AcDbSpline
210
0.0
220
0.0
230
1.0
 70
     8
 71
     3
 72
    11
 73
     7
 74
     0
 42
0.00000001
 43
0.00000001
 40
0.0
 40
0.0
 40
0.0
 40
0.0
 40
0.2500492632215804
 40
0.4998309992079434
 40
0.74976689178313
 40
1.0
 40
1.0
 40
1.0
 40
1.0
 10
2585.739970985317
 20
7282.218833957016
 30
0.0
 10
2585.737482625261
 20
7282.213411013119
 30
0.0
 10
2585.732508567439
 20
7282.202570927323
 30
0.0
 10
2585.723269335699
 20
7282.192559635334
 30
0.0
 10
2585.713552928363
 20
7282.186542680167
 30
0.0
 10
2585.706919620498
 20
7282.185895668689
 30
0.0
 10
2585.703600995709
 20
7282.185571970715
 30
0.0
  0
SPLINE
  5
148
330
1F
100
AcDbEntity
  8
0
  6
Continuous
 62
     7
370
    25
100
AcDbSpline
210
0.0
220
0.0
230
1.0
 70
     8
 71
     3
 72
    10
 73
     6
 74
     0
 42
0.00000001
 43
0.00000001
 40
0.0
 40
0.0
 40
0.0
 40
0.0
 40
0.304705801472948
 40
0.5762581046432658
 40
1.0
 40
1.0
 40
1.0
 40
1.0
 10
2585.744003820068
 20
7282.249998340578
 30
0.0
 10
2585.74382433906
 20
7282.246689898935
 30
0.0
 10
2585.743484905465
 20
7282.240432990465
 30
0.0
 10
2585.742278510907
 20
7282.22981672448
 30
0.0
 10
2585.74084476881
 20
7282.222992767198
 30
0.0
 10
2585.739970985317
 20
7282.218833957016
 30
0.0
  0
SPLINE
  5
149
330
1F
100
AcDbEntity
  8
0
  6
Continuous
 62
     7
370
    25
100
AcDbSpline
210
0.0
220
0.0
230
1.0
 70
     8
 71
     3
 72
    10
 73
     6
 74
     0
 42
0.00000001
 43
0.00000001
 40
0.0
 40
0.0
 40
0.0
 40
0.0
 40
0.3325154243635751
 40
0.6634226556241084
 40
1.0
 40
1.0
 40
1.0
 40
1.0
 10
2585.739089683604
 20
7282.277566833728
 30
0.0
 10
2585.739805727697
 20
7282.274699756797
 30
0.0
 10
2585.741234352775
 20
7282.268979469398
 30
0.0
 10
2585.742912044474
 20
7282.25973405679
 30
0.0
 10
2585.743637839721
 20
7282.253261905746
 30
0.0
 10
2585.744003820068
 20
7282.249998340578
 30
0.0
  0
LINE
  5
14A
330
1F
100
AcDbEntity
  8
0
  6
Continuous
 62
     7
370
    25
100
AcDbLine
 10
2585.5742455235
 20
7282.8927637515
 30
0.0
 11
2585.7390896836
 21
7282.2775668337
 31
0.0
  0
LINE
  5
14B
330
1F
100
AcDbEntity
  8
0
  6
Continuous
 62
     7
370
    25
100
AcDbLine
 10
2585.7277868439
 20
7283.4974726556
 30
0.0
 11
2585.5742455235
 21
7282.8927637515
 31
0.0
  0
SPLINE
  5
14C
330
1F
100
AcDbEntity
  8
0
  6
Continuous
 62
     7
370
    25
100
AcDbSpline
210
0.0
220
0.0
230
1.0
 70
     8
 71
     3
 72
    10
 73
     6
 74
     0
 42
0.00000001
 43
0.00000001
 40
0.0
 40
0.0
 40
0.0
 40
0.0
 40
0.2492904803073617
 40
0.4993112821061945
 40
1.0
 40
1.0
 40
1.0
 40
1.0
 10
2585.744003820068
 20
7283.550811696742
 30
0.0
 10
2585.74357370708
 20
7283.545201729975
 30
0.0
 10
2585.742712221043
 20
7283.53396536148
 30
0.0
 10
2585.736673081377
 20
7283.515887888004
 30
0.0
 10
2585.731342257949
 20
7283.50484065314
 30
0.0
 10
2585.727786843933
 20
7283.497472655646
 30
0.0
  0
SPLINE
  5
14D
330
1F
100
AcDbEntity
  8
0
  6
Continuous
 62
     7
370
    25
100
AcDbSpline
210
0.0
220
0.0
230
1.0
 70
     8
 71
     3
 72
    11
 73
     7
 74
     0
 42
0.00000001
 43
0.00000001
 40
0.0
 40
0.0
 40
0.0
 40
0.0
 40
0.2504737303710377
 40
0.5001199898305628
 40
0.7496164706793966
 40
1.0
 40
1.0
 40
1.0
 40
1.0
 10
2585.722905195983
 20
7283.599655874825
 30
0.0
 10
2585.725400476289
 20
7283.597907679239
 30
0.0
 10
2585.730382793432
 20
7283.594417063447
 30
0.0
 10
2585.737002411625
 20
7283.583981780328
 30
0.0
 10
2585.741759298512
 20
7283.568712694982
 30
0.0
 10
2585.743254761638
 20
7283.556785751033
 30
0.0
 10
2585.744003820068
 20
7283.550811696742
 30
0.0
  0
SPLINE
  5
14E
330
1F
100
AcDbEntity
  8
0
  6
Continuous
 62
     7
370
    25
100
AcDbSpline
210
0.0
220
0.0
230
1.0
 70
     8
 71
     3
 72
     9
 73
     5
 74
     0
 42
0.00000001
 43
0.00000001
 40
0.0
 40
0.0
 40
0.0
 40
0.0
 40
0.500189805949995
 40
1.0
 40
1.0
 40
1.0
 40
1.0
 10
2585.710059917844
 20
7283.604750052907
 30
0.0
 10
2585.71222869849
 20
7283.604357429981
 30
0.0
 10
2585.716564613818
 20
7283.603572482108
 30
0.0
 10
2585.720792203543
 20
7283.600961080145
 30
0.0
 10
2585.722905195983
 20
7283.599655874825
 30
0.0
  0
SPLINE
  5
14F
330
1F
100
AcDbEntity
  8
0
  6
Continuous
 62
     7
370
    25
100
AcDbSpline
210
0.0
220
0.0
230
1.0
 70
     8
 71
     3
 72
     9
 73
     5
 74
     0
 42
0.00000001
 43
0.00000001
 40
0.0
 40
0.0
 40
0.0
 40
0.0
 40
0.5018301460567145
 40
1.0
 40
1.0
 40
1.0
 40
1.0
 10
2585.691229206084
 20
7283.584672998112
 30
0.0
 10
2585.694039386197
 20
7283.589847482958
 30
0.0
 10
2585.699639249287
 20
7283.600158710547
 30
0.0
 10
2585.706594848166
 20
7283.603223344605
 30
0.0
 10
2585.710059917844
 20
7283.604750052907
 30
0.0
  0
LINE
  5
150
330
1F
100
AcDbEntity
  8
0
  6
Continuous
 62
     7
370
    25
100
AcDbLine
 10
2585.5432253834
 20
7282.9925497104
 30
0.0
 11
2585.6912292061
 21
7283.5846729981
 31
0.0
  0
LINE
  5
151
330
1F
100
AcDbEntity
  8
0
  6
Continuous
 62
     7
370
    25
100
AcDbLine
 10
2585.4072440596
 20
7283.5723870392
 30
0.0
 11
2585.5432253834
 21
7282.9925497104
 31
0.0
  0
SPLINE
  5
152
330
1F
100
AcDbEntity
  8
0
  6
Continuous
 62
     7
370
    25
100
AcDbSpline
210
0.0
220
0.0
230
1.0
 70
     8
 71
     3
 72
    10
 73
     6
 74
     0
 42
0.00000001
 43
0.00000001
 40
0.0
 40
0.0
 40
0.0
 40
0.0
 40
0.4990665516922249
 40
0.749273559763457
 40
1.0
 40
1.0
 40
1.0
 40
1.0
 10
2585.050296373944
 20
7283.604750052907
 30
0.0
 10
2585.053936556416
 20
7283.603672711019
 30
0.0
 10
2585.059401744315
 20
7283.602055243794
 30
0.0
 10
2585.065798843121
 20
7283.588048007157
 30
0.0
 10
2585.06806614894
 20
7283.577610969344
 30
0.0
 10
2585.069200977365
 20
7283.572387039208
 30
0.0
  0
SPLINE
  5
153
330
1F
100
AcDbEntity
  8
0
  6
Continuous
 62
     7
370
    25
100
AcDbSpline
210
0.0
220
0.0
230
1.0
 70
     8
 71
     3
 72
    11
 73
     7
 74
     0
 42
0.00000001
 43
0.00000001
 40
0.0
 40
0.0
 40
0.0
 40
0.0
 40
0.2502250740515298
 40
0.5000221176560091
 40
0.7497760287822925
 40
1.0
 40
1.0
 40
1.0
 40
1.0
 10
2585.036333223675
 20
7283.578679847426
 30
0.0
 10
2585.037181161753
 20
7283.582615043268
 30
0.0
 10
2585.038875587442
 20
7283.590478703475
 30
0.0
 10
2585.042320758138
 20
7283.598778413011
 30
0.0
 10
2585.046178918951
 20
7283.604188767978
 30
0.0
 10
2585.048923028977
 20
7283.604562840701
 30
0.0
 10
2585.050296373944
 20
7283.604750052907
 30
0.0
  0
SPLINE
  5
154
330
1F
100
AcDbEntity
  8
0
  6
Continuous
 62
     7
370
    25
100
AcDbSpline
210
0.0
220
0.0
230
1.0
 70
     8
 71
     3
 72
    10
 73
     6
 74
     0
 42
0.00000001
 43
0.00000001
 40
0.0
 40
0.0
 40
0.0
 40
0.0
 40
0.2558734379474782
 40
0.6629806120344964
 40
1.0
 40
1.0
 40
1.0
 40
1.0
 10
2585.032954393976
 20
7283.542421285782
 30
0.0
 10
2585.033006138792
 20
7283.545747213046
 30
0.0
 10
2585.033140212144
 20
7283.554364853506
 30
0.0
 10
2585.034072979273
 20
7283.567268532261
 30
0.0
 10
2585.035628650731
 20
7283.575122664002
 30
0.0
 10
2585.036333223675
 20
7283.578679847426
 30
0.0
  0
SPLINE
  5
155
330
1F
100
AcDbEntity
  8
0
  6
Continuous
 62
     7
370
    25
100
AcDbSpline
210
0.0
220
0.0
230
1.0
 70
     8
 71
     3
 72
    10
 73
     6
 74
     0
 42
0.00000001
 43
0.00000001
 40
0.0
 40
0.0
 40
0.0
 40
0.0
 40
0.4205323629123496
 40
0.7090838547939954
 40
0.9999999999999999
 40
0.9999999999999999
 40
0.9999999999999999
 40
0.9999999999999999
 10
2585.033998930716
 20
7283.519047998112
 30
0.0
 10
2585.033736297713
 20
7283.522243389924
 30
0.0
 10
2585.03329345707
 20
7283.527631324228
 30
0.0
 10
2585.033037064578
 20
7283.535528065046
 30
0.0
 10
2585.03298202571
 20
7283.540117303051
 30
0.0
 10
2585.032954393976
 20
7283.542421285782
 30
0.0
  0
LINE
  5
156
330
1F
100
AcDbEntity
  8
0
  6
Continuous
 62
     7
370
    25
100
AcDbLine
 10
2585.1517151979
 20
7282.8951610118
 30
0.0
 11
2585.0339989307
 21
7283.5190479981
 31
0.0
  0
LINE
  5
157
330
1F
100
AcDbEntity
  8
0
  6
Continuous
 62
     7
370
    25
100
AcDbLine
 10
2585.0368975369
 20
7282.2880548474
 30
0.0
 11
2585.1517151979
 21
7282.8951610118
 31
0.0
  0
SPLINE
  5
158
330
1F
100
AcDbEntity
  8
0
  6
Continuous
 62
     7
370
    25
100
AcDbSpline
210
0.0
220
0.0
230
1.0
 70
     8
 71
     3
 72
     9
 73
     5
 74
     0
 42
0.00000001
 43
0.00000001
 40
0.0
 40
0.0
 40
0.0
 40
0.0
 40
0.5000461132597971
 40
1.0
 40
1.0
 40
1.0
 40
1.0
 10
2585.032954393976
 20
7282.236813409071
 30
0.0
 10
2585.033087414648
 20
7282.245913050418
 30
0.0
 10
2585.033353431457
 20
7282.264110654812
 30
0.0
 10
2585.035716241051
 20
7282.280073940635
 30
0.0
 10
2585.03689753689
 20
7282.288054847428
 30
0.0
  0
SPLINE
  5
159
330
1F
100
AcDbEntity
  8
0
  6
Continuous
 62
     7
370
    25
100
AcDbSpline
210
0.0
220
0.0
230
1.0
 70
     8
 71
     3
 72
    10
 73
     6
 74
     0
 42
0.00000001
 43
0.00000001
 40
0.0
 40
0.0
 40
0.0
 40
0.0
 40
0.2503279413721708
 40
0.4999666459573227
 40
0.9999999999999999
 40
0.9999999999999999
 40
0.9999999999999999
 40
0.9999999999999999
 10
2585.04450796822
 20
7282.188568546057
 30
0.0
 10
2585.042994913317
 20
7282.190032839512
 30
0.0
 10
2585.039972969459
 20
7282.192957394733
 30
0.0
 10
2585.035401132457
 20
7282.209475140648
 30
0.0
 10
2585.033933385374
 20
7282.225874794326
 30
0.0
 10
2585.032954393976
 20
7282.236813409071
 30
0.0
  0
LINE
  5
15A
330
1F
100
AcDbEntity
  8
0
  6
Continuous
 62
     7
370
    25
100
AcDbLine
 10
2585.0502146076
 20
7282.1855719707
 30
0.0
 11
2585.0445079682
 21
7282.1885685461
 31
0.0
  0
SPLINE
  5
15B
330
1F
100
AcDbEntity
  8
0
  6
Continuous
 62
     7
370
    25
100
AcDbSpline
210
0.0
220
0.0
230
1.0
 70
     8
 71
     3
 72
    10
 73
     6
 74
     0
 42
0.00000001
 43
0.00000001
 40
0.0
 40
0.0
 40
0.0
 40
0.0
 40
0.2502237850967984
 40
0.5004141625172555
 40
1.0
 40
1.0
 40
1.0
 40
1.0
 10
2585.065789964142
 20
7282.204150737838
 30
0.0
 10
2585.064693913164
 20
7282.200921046645
 30
0.0
 10
2585.062501957542
 20
7282.194462095457
 30
0.0
 10
2585.057162569703
 20
7282.187340176268
 30
0.0
 10
2585.052992908287
 20
7282.186279027929
 30
0.0
 10
2585.050214607576
 20
7282.185571970715
 30
0.0
  0
LINE
  5
15C
330
1F
100
AcDbEntity
  8
0
  6
Continuous
 62
     7
370
    25
100
AcDbLine
 10
2585.1756651433
 20
7282.7986712858
 30
0.0
 11
2585.0657899641
 21
7282.2041507378
 31
0.0
  0
LINE
  5
15D
330
1F
100
AcDbEntity
  8
0
  6
Continuous
 62
     7
370
    25
100
AcDbLine
 10
2585.2905621899
 20
7282.2203322447
 30
0.0
 11
2585.1756651433
 21
7282.7986712858
 31
0.0
  0
SPLINE
  5
15E
330
1F
100
AcDbEntity
  8
0
  6
Continuous
 62
     7
370
    25
100
AcDbSpline
210
0.0
220
0.0
230
1.0
 70
     8
 71
     3
 72
     9
 73
     5
 74
     0
 42
0.00000001
 43
0.00000001
 40
0.0
 40
0.0
 40
0.0
 40
0.0
 40
0.4998923417080097
 40
1.0
 40
1.0
 40
1.0
 40
1.0
 10
2585.30498975425
 20
7282.185571970715
 30
0.0
 10
2585.302199101247
 20
7282.189960645446
 30
0.0
 10
2585.296616593235
 20
7282.198739885228
 30
0.0
 10
2585.292580613993
 20
7282.213133758453
 30
0.0
 10
2585.290562189865
 20
7282.220332244688
 30
0.0
  0
SPLINE
  5
15F
330
1F
100
AcDbEntity
  8
0
  6
Continuous
 62
     7
370
    25
100
AcDbSpline
210
0.0
220
0.0
230
1.0
 70
     8
 71
     3
 72
    11
 73
     7
 74
     0
 42
0.00000001
 43
0.00000001
 40
0.0
 40
0.0
 40
0.0
 40
0.0
 40
0.2500492632218044
 40
0.4998309992075887
 40
0.7497668917829234
 40
1.0
 40
1.0
 40
1.0
 40
1.0
 10
2585.334569278858
 20
7282.218833957016
 30
0.0
 10
2585.332541796634
 20
7282.213411013119
 30
0.0
 10
2585.328489001386
 20
7282.202570927323
 30
0.0
 10
2585.320969595096
 20
7282.192559635334
 30
0.0
 10
2585.313069578356
 20
7282.186542680167
 30
0.0
 10
2585.307684095691
 20
7282.185895668689
 30
0.0
 10
2585.30498975425
 20
7282.185571970715
 30
0.0
  0
SPLINE
  5
160
330
1F
100
AcDbEntity
  8
0
  6
Continuous
 62
     7
370
    25
100
AcDbSpline
210
0.0
220
0.0
230
1.0
 70
     8
 71
     3
 72
    10
 73
     6
 74
     0
 42
0.00000001
 43
0.00000001
 40
0.0
 40
0.0
 40
0.0
 40
0.0
 40
0.3047058014730085
 40
0.5762581046499246
 40
1.0
 40
1.0
 40
1.0
 40
1.0
 10
2585.337856570256
 20
7282.249998340578
 30
0.0
 10
2585.33771024036
 20
7282.246689898935
 30
0.0
 10
2585.337433501986
 20
7282.240432990465
 30
0.0
 10
2585.33644997883
 20
7282.22981672448
 30
0.0
 10
2585.33528143763
 20
7282.222992767198
 30
0.0
 10
2585.334569278858
 20
7282.218833957016
 30
0.0
  0
SPLINE
  5
161
330
1F
100
AcDbEntity
  8
0
  6
Continuous
 62
     7
370
    25
100
AcDbSpline
210
0.0
220
0.0
230
1.0
 70
     8
 71
     3
 72
    10
 73
     6
 74
     0
 42
0.00000001
 43
0.00000001
 40
0.0
 40
0.0
 40
0.0
 40
0.0
 40
0.3325154243638357
 40
0.6634226556243702
 40
1.0
 40
1.0
 40
1.0
 40
1.0
 10
2585.333851095943
 20
7282.277566833728
 30
0.0
 10
2585.334434623717
 20
7282.274699756797
 30
0.0
 10
2585.335598857065
 20
7282.268979469398
 30
0.0
 10
2585.336966460748
 20
7282.25973405679
 30
0.0
 10
2585.337558191552
 20
7282.253261905746
 30
0.0
 10
2585.337856570256
 20
7282.249998340578
 30
0.0
  0
LINE
  5
162
330
1F
100
AcDbEntity
  8
0
  6
Continuous
 62
     7
370
    25
100
AcDbLine
 10
2585.2008344768
 20
7282.8927637515
 30
0.0
 11
2585.3338510959
 21
7282.2775668337
 31
0.0
  0
LINE
  5
163
330
1F
100
AcDbEntity
  8
0
  6
Continuous
 62
     7
370
    25
100
AcDbLine
 10
2585.3246464929
 20
7283.4974726556
 30
0.0
 11
2585.2008344768
 21
7282.8927637515
 31
0.0
  0
SPLINE
  5
164
330
1F
100
AcDbEntity
  8
0
  6
Continuous
 62
     7
370
    25
100
AcDbSpline
210
0.0
220
0.0
230
1.0
 70
     8
 71
     3
 72
    10
 73
     6
 74
     0
 42
0.00000001
 43
0.00000001
 40
0.0
 40
0.0
 40
0.0
 40
0.0
 40
0.2492904803073272
 40
0.4993112821062603
 40
1.0
 40
1.0
 40
1.0
 40
1.0
 10
2585.337856570256
 20
7283.550811696742
 30
0.0
 10
2585.337505887947
 20
7283.545201729975
 30
0.0
 10
2585.336803495973
 20
7283.53396536148
 30
0.0
 10
2585.331881032258
 20
7283.515887888004
 30
0.0
 10
2585.327541056854
 20
7283.50484065314
 30
0.0
 10
2585.324646492892
 20
7283.497472655646
 30
0.0
  0
SPLINE
  5
165
330
1F
100
AcDbEntity
  8
0
  6
Continuous
 62
     7
370
    25
100
AcDbSpline
210
0.0
220
0.0
230
1.0
 70
     8
 71
     3
 72
    11
 73
     7
 74
     0
 42
0.00000001
 43
0.00000001
 40
0.0
 40
0.0
 40
0.0
 40
0.0
 40
0.2504737303712323
 40
0.5001199898304621
 40
0.7496164706793018
 40
1.0
 40
1.0
 40
1.0
 40
1.0
 10
2585.320674652678
 20
7283.599655874825
 30
0.0
 10
2585.322704834628
 20
7283.597907679239
 30
0.0
 10
2585.326758491573
 20
7283.594417063447
 30
0.0
 10
2585.332149993077
 20
7283.583981780328
 30
0.0
 10
2585.336026621461
 20
7283.568712694982
 30
0.0
 10
2585.337245866132
 20
7283.556785751033
 30
0.0
 10
2585.337856570256
 20
7283.550811696742
 30
0.0
  0
SPLINE
  5
166
330
1F
100
AcDbEntity
  8
0
  6
Continuous
 62
     7
370
    25
100
AcDbSpline
210
0.0
220
0.0
230
1.0
 70
     8
 71
     3
 72
     9
 73
     5
 74
     0
 42
0.00000001
 43
0.00000001
 40
0.0
 40
0.0
 40
0.0
 40
0.0
 40
0.5001898059498866
 40
1.0
 40
1.0
 40
1.0
 40
1.0
 10
2585.310233855181
 20
7283.604750052907
 30
0.0
 10
2585.311995713693
 20
7283.604357429981
 30
0.0
 10
2585.315518093581
 20
7283.603572482108
 30
0.0
 10
2585.318956234698
 20
7283.600961080145
 30
0.0
 10
2585.320674652678
 20
7283.599655874825
 30
0.0
  0
SPLINE
  5
167
330
1F
100
AcDbEntity
  8
0
  6
Continuous
 62
     7
370
    25
100
AcDbSpline
210
0.0
220
0.0
230
1.0
 70
     8
 71
     3
 72
     9
 73
     5
 74
     0
 42
0.00000001
 43
0.00000001
 40
0.0
 40
0.0
 40
0.0
 40
0.0
 40
0.5018301460573817
 40
1.0
 40
1.0
 40
1.0
 40
1.0
 10
2585.294955864319
 20
7283.584672998112
 30
0.0
 10
2585.297233774088
 20
7283.589847482958
 30
0.0
 10
2585.301772978809
 20
7283.600158710547
 30
0.0
 10
2585.307420453526
 20
7283.603223344605
 30
0.0
 10
2585.310233855181
 20
7283.604750052907
 30
0.0
  0
LINE
  5
168
330
1F
100
AcDbEntity
  8
0
  6
Continuous
 62
     7
370
    25
100
AcDbLine
 10
2585.1761232978
 20
7282.9925497104
 30
0.0
 11
2585.2949558643
 21
7283.5846729981
 31
0.0
  0
LINE
  5
169
330
1F
100
AcDbEntity
  8
0
  6
Continuous
 62
     7
370
    25
100
AcDbLine
 10
2585.0692009774
 20
7283.5723870392
 30
0.0
 11
2585.1761232978
 21
7282.9925497104
 31
0.0
  0
SPLINE
  5
16A
330
1F
100
AcDbEntity
  8
0
  6
Continuous
 62
     7
370
    25
100
AcDbSpline
210
0.0
220
0.0
230
1.0
 70
     8
 71
     3
 72
    10
 73
     6
 74
     0
 42
0.00000001
 43
0.00000001
 40
0.0
 40
0.0
 40
0.0
 40
0.0
 40
0.4990665516922887
 40
0.7492735597631714
 40
1.0
 40
1.0
 40
1.0
 40
1.0
 10
2584.803699744202
 20
7283.604750052907
 30
0.0
 10
2584.80625207076
 20
7283.603672711019
 30
0.0
 10
2584.810084006199
 20
7283.602055243794
 30
0.0
 10
2584.814591160704
 20
7283.588048007156
 30
0.0
 10
2584.816191548349
 20
7283.577610969344
 30
0.0
 10
2584.816992571915
 20
7283.572387039208
 30
0.0
  0
SPLINE
  5
16B
330
1F
100
AcDbEntity
  8
0
  6
Continuous
 62
     7
370
    25
100
AcDbSpline
210
0.0
220
0.0
230
1.0
 70
     8
 71
     3
 72
    11
 73
     7
 74
     0
 42
0.00000001
 43
0.00000001
 40
0.0
 40
0.0
 40
0.0
 40
0.0
 40
0.2502250740513963
 40
0.5000221176556823
 40
0.7497760287821593
 40
1.0
 40
1.0
 40
1.0
 40
1.0
 10
2584.793956352056
 20
7283.578679847426
 30
0.0
 10
2584.794546208465
 20
7283.582615043268
 30
0.0
 10
2584.795724912286
 20
7283.590478703475
 30
0.0
 10
2584.79812572628
 20
7283.598778413011
 30
0.0
 10
2584.800818696446
 20
7283.604188767978
 30
0.0
 10
2584.802738793216
 20
7283.604562840701
 30
0.0
 10
2584.803699744202
 20
7283.604750052907
 30
0.0
  0
SPLINE
  5
16C
330
1F
100
AcDbEntity
  8
0
  6
Continuous
 62
     7
370
    25
100
AcDbSpline
210
0.0
220
0.0
230
1.0
 70
     8
 71
     3
 72
    10
 73
     6
 74
     0
 42
0.00000001
 43
0.00000001
 40
0.0
 40
0.0
 40
0.0
 40
0.0
 40
0.2558734379474394
 40
0.6629806120352179
 40
1.0
 40
1.0
 40
1.0
 40
1.0
 10
2584.79160854474
 20
7283.542421285782
 30
0.0
 10
2584.791644477302
 20
7283.545747213046
 30
0.0
 10
2584.791737580332
 20
7283.554364853506
 30
0.0
 10
2584.792385072908
 20
7283.567268532261
 30
0.0
 10
2584.793466546274
 20
7283.575122664002
 30
0.0
 10
2584.793956352056
 20
7283.578679847426
 30
0.0
  0
SPLINE
  5
16D
330
1F
100
AcDbEntity
  8
0
  6
Continuous
 62
     7
370
    25
100
AcDbSpline
210
0.0
220
0.0
230
1.0
 70
     8
 71
     3
 72
    10
 73
     6
 74
     0
 42
0.00000001
 43
0.00000001
 40
0.0
 40
0.0
 40
0.0
 40
0.0
 40
0.4205323629124376
 40
0.7090838547939863
 40
1.0
 40
1.0
 40
1.0
 40
1.0
 10
2584.792333929827
 20
7283.519047998112
 30
0.0
 10
2584.792151520343
 20
7283.522243389924
 30
0.0
 10
2584.7918439492
 20
7283.527631324228
 30
0.0
 10
2584.791665943538
 20
7283.535528065046
 30
0.0
 10
2584.791627729653
 20
7283.540117303051
 30
0.0
 10
2584.79160854474
 20
7283.542421285782
 30
0.0
  0
LINE
  5
16E
330
1F
100
AcDbEntity
  8
0
  6
Continuous
 62
     7
370
    25
100
AcDbLine
 10
2584.8762348813
 20
7282.8951610118
 30
0.0
 11
2584.7923339298
 21
7283.5190479981
 31
0.0
  0
LINE
  5
16F
330
1F
100
AcDbEntity
  8
0
  6
Continuous
 62
     7
370
    25
100
AcDbLine
 10
2584.7943488516
 20
7282.2880548474
 30
0.0
 11
2584.8762348813
 21
7282.8951610118
 31
0.0
  0
SPLINE
  5
170
330
1F
100
AcDbEntity
  8
0
  6
Continuous
 62
     7
370
    25
100
AcDbSpline
210
0.0
220
0.0
230
1.0
 70
     8
 71
     3
 72
     9
 73
     5
 74
     0
 42
0.00000001
 43
0.00000001
 40
0.0
 40
0.0
 40
0.0
 40
0.0
 40
0.5000461132599507
 40
1.0
 40
1.0
 40
1.0
 40
1.0
 10
2584.79160854474
 20
7282.236813409071
 30
0.0
 10
2584.791700748198
 20
7282.245913050418
 30
0.0
 10
2584.791885138109
 20
7282.264110654812
 30
0.0
 10
2584.793527664262
 20
7282.280073940635
 30
0.0
 10
2584.794348851597
 20
7282.288054847428
 30
0.0
  0
SPLINE
  5
171
330
1F
100
AcDbEntity
  8
0
  6
Continuous
 62
     7
370
    25
100
AcDbSpline
210
0.0
220
0.0
230
1.0
 70
     8
 71
     3
 72
    10
 73
     6
 74
     0
 42
0.00000001
 43
0.00000001
 40
0.0
 40
0.0
 40
0.0
 40
0.0
 40
0.2503279413722466
 40
0.49996664595731
 40
1.0
 40
1.0
 40
1.0
 40
1.0
 10
2584.799652721282
 20
7282.188568546057
 30
0.0
 10
2584.798597028047
 20
7282.190032839512
 30
0.0
 10
2584.796488548254
 20
7282.192957394733
 30
0.0
 10
2584.793307432116
 20
7282.209475140648
 30
0.0
 10
2584.792288305221
 20
7282.225874794326
 30
0.0
 10
2584.79160854474
 20
7282.236813409071
 30
0.0
  0
LINE
  5
172
330
1F
100
AcDbEntity
  8
0
  6
Continuous
 62
     7
370
    25
100
AcDbLine
 10
2584.8036424995
 20
7282.1855719707
 30
0.0
 11
2584.7996527213
 21
7282.1885685461
 31
0.0
  0
SPLINE
  5
173
330
1F
100
AcDbEntity
  8
0
  6
Continuous
 62
     7
370
    25
100
AcDbSpline
210
0.0
220
0.0
230
1.0
 70
     8
 71
     3
 72
    10
 73
     6
 74
     0
 42
0.00000001
 43
0.00000001
 40
0.0
 40
0.0
 40
0.0
 40
0.0
 40
0.2502237850972012
 40
0.5004141625174584
 40
1.0
 40
1.0
 40
1.0
 40
1.0
 10
2584.814585744287
 20
7282.204150737838
 30
0.0
 10
2584.813813262346
 20
7282.200921046645
 30
0.0
 10
2584.812268401598
 20
7282.194462095457
 30
0.0
 10
2584.80851202191
 20
7282.187340176268
 30
0.0
 10
2584.80558968881
 20
7282.186279027929
 30
0.0
 10
2584.803642499502
 20
7282.185571970715
 30
0.0
  0
LINE
  5
174
330
1F
100
AcDbEntity
  8
0
  6
Continuous
 62
     7
370
    25
100
AcDbLine
 10
2584.8937624675
 20
7282.7986712858
 30
0.0
 11
2584.8145857443
 21
7282.2041507378
 31
0.0
  0
LINE
  5
175
330
1F
100
AcDbEntity
  8
0
  6
Continuous
 62
     7
370
    25
100
AcDbLine
 10
2584.9795861134
 20
7282.2203322447
 30
0.0
 11
2584.8937624675
 21
7282.7986712858
 31
0.0
  0
SPLINE
  5
176
330
1F
100
AcDbEntity
  8
0
  6
Continuous
 62
     7
370
    25
100
AcDbSpline
210
0.0
220
0.0
230
1.0
 70
     8
 71
     3
 72
     9
 73
     5
 74
     0
 42
0.00000001
 43
0.00000001
 40
0.0
 40
0.0
 40
0.0
 40
0.0
 40
0.4998923417080138
 40
1.0
 40
1.0
 40
1.0
 40
1.0
 10
2584.990544275805
 20
7282.185571970715
 30
0.0
 10
2584.988422400543
 20
7282.189960645446
 30
0.0
 10
2584.984177736072
 20
7282.198739885228
 30
0.0
 10
2584.981116873945
 20
7282.213133758453
 30
0.0
 10
2584.979586113354
 20
7282.220332244688
 30
0.0
  0
SPLINE
  5
177
330
1F
100
AcDbEntity
  8
0
  6
Continuous
 62
     7
370
    25
100
AcDbSpline
210
0.0
220
0.0
230
1.0
 70
     8
 71
     3
 72
    11
 73
     7
 74
     0
 42
0.00000001
 43
0.00000001
 40
0.0
 40
0.0
 40
0.0
 40
0.0
 40
0.2500492632217657
 40
0.4998309992076985
 40
0.7497668917830539
 40
1.0
 40
1.0
 40
1.0
 40
1.0
 10
2585.013123971432
 20
7282.218833957016
 30
0.0
 10
2585.011571717567
 20
7282.213411013119
 30
0.0
 10
2585.008468870591
 20
7282.202570927323
 30
0.0
 10
2585.002722512137
 20
7282.192559635334
 30
0.0
 10
2584.99669480234
 20
7282.186542680167
 30
0.0
 10
2584.99259526334
 20
7282.185895668689
 30
0.0
 10
2584.990544275805
 20
7282.185571970715
 30
0.0
  0
SPLINE
  5
178
330
1F
100
AcDbEntity
  8
0
  6
Continuous
 62
     7
370
    25
100
AcDbSpline
210
0.0
220
0.0
230
1.0
 70
     8
 71
     3
 72
    10
 73
     6
 74
     0
 42
0.00000001
 43
0.00000001
 40
0.0
 40
0.0
 40
0.0
 40
0.0
 40
0.3047058014727364
 40
0.5762581046498431
 40
1.0
 40
1.0
 40
1.0
 40
1.0
 10
2585.015642452016
 20
7282.249998340578
 30
0.0
 10
2585.015530308957
 20
7282.246689898935
 30
0.0
 10
2585.015318224558
 20
7282.240432990465
 30
0.0
 10
2585.014564534186
 20
7282.22981672448
 30
0.0
 10
2585.013669464821
 20
7282.222992767198
 30
0.0
 10
2585.013123971432
 20
7282.218833957016
 30
0.0
  0
SPLINE
  5
179
330
1F
100
AcDbEntity
  8
0
  6
Continuous
 62
     7
370
    25
100
AcDbSpline
210
0.0
220
0.0
230
1.0
 70
     8
 71
     3
 72
    10
 73
     6
 74
     0
 42
0.00000001
 43
0.00000001
 40
0.0
 40
0.0
 40
0.0
 40
0.0
 40
0.3325154243634386
 40
0.6634226556240458
 40
1.0
 40
1.0
 40
1.0
 40
1.0
 10
2585.012573990617
 20
7282.277566833728
 30
0.0
 10
2585.01302087186
 20
7282.274699756797
 30
0.0
 10
2585.013912473029
 20
7282.268979469398
 30
0.0
 10
2585.014960308792
 20
7282.25973405679
 30
0.0
 10
2585.015413786881
 20
7282.253261905746
 30
0.0
 10
2585.015642452016
 20
7282.249998340578
 30
0.0
  0
LINE
  5
17A
330
1F
100
AcDbEntity
  8
0
  6
Continuous
 62
     7
370
    25
100
AcDbLine
 10
2584.9123264045
 20
7282.8927637515
 30
0.0
 11
2585.0125739906
 21
7282.2775668337
 31
0.0
  0
LINE
  5
17B
330
1F
100
AcDbEntity
  8
0
  6
Continuous
 62
     7
370
    25
100
AcDbLine
 10
2585.0055327744
 20
7283.4974726556
 30
0.0
 11
2584.9123264045
 21
7282.8927637515
 31
0.0
  0
SPLINE
  5
17C
330
1F
100
AcDbEntity
  8
0
  6
Continuous
 62
     7
370
    25
100
AcDbSpline
210
0.0
220
0.0
230
1.0
 70
     8
 71
     3
 72
    10
 73
     6
 74
     0
 42
0.00000001
 43
0.00000001
 40
0.0
 40
0.0
 40
0.0
 40
0.0
 40
0.2492904803073596
 40
0.4993112821061574
 40
1.0
 40
1.0
 40
1.0
 40
1.0
 10
2585.015642452016
 20
7283.550811696742
 30
0.0
 10
2585.01537368252
 20
7283.545201729975
 30
0.0
 10
2585.014835356138
 20
7283.53396536148
 30
0.0
 10
2585.011064409592
 20
7283.515887888004
 30
0.0
 10
2585.007746000572
 20
7283.50484065314
 30
0.0
 10
2585.005532774398
 20
7283.497472655646
 30
0.0
  0
SPLINE
  5
17D
330
1F
100
AcDbEntity
  8
0
  6
Continuous
 62
     7
370
    25
100
AcDbSpline
210
0.0
220
0.0
230
1.0
 70
     8
 71
     3
 72
    11
 73
     7
 74
     0
 42
0.00000001
 43
0.00000001
 40
0.0
 40
0.0
 40
0.0
 40
0.0
 40
0.2504737303714804
 40
0.5001199898305949
 40
0.7496164706792972
 40
1.0
 40
1.0
 40
1.0
 40
1.0
 10
2585.002498854619
 20
7283.599655874825
 30
0.0
 10
2585.00404956858
 20
7283.597907679239
 30
0.0
 10
2585.007145873528
 20
7283.594417063447
 30
0.0
 10
2585.011271097276
 20
7283.583981780328
 30
0.0
 10
2585.014240028368
 20
7283.568712694982
 30
0.0
 10
2585.015174424765
 20
7283.556785751033
 30
0.0
 10
2585.015642452016
 20
7283.550811696742
 30
0.0
  0
SPLINE
  5
17E
330
1F
100
AcDbEntity
  8
0
  6
Continuous
 62
     7
370
    25
100
AcDbSpline
210
0.0
220
0.0
230
1.0
 70
     8
 71
     3
 72
     9
 73
     5
 74
     0
 42
0.00000001
 43
0.00000001
 40
0.0
 40
0.0
 40
0.0
 40
0.0
 40
0.5001898058910704
 40
1.0
 40
1.0
 40
1.0
 40
1.0
 10
2584.994536437767
 20
7283.604750052907
 30
0.0
 10
2584.995878903705
 20
7283.604357429981
 30
0.0
 10
2584.998562816734
 20
7283.603572482108
 30
0.0
 10
2585.00118717407
 20
7283.600961080145
 30
0.0
 10
2585.002498854619
 20
7283.599655874825
 30
0.0
  0
SPLINE
  5
17F
330
1F
100
AcDbEntity
  8
0
  6
Continuous
 62
     7
370
    25
100
AcDbSpline
210
0.0
220
0.0
230
1.0
 70
     8
 71
     3
 72
     9
 73
     5
 74
     0
 42
0.00000001
 43
0.00000001
 40
0.0
 40
0.0
 40
0.0
 40
0.0
 40
0.5018301460565084
 40
1.0
 40
1.0
 40
1.0
 40
1.0
 10
2584.982919305479
 20
7283.584672998112
 30
0.0
 10
2584.984648821849
 20
7283.589847482958
 30
0.0
 10
2584.988095239693
 20
7283.600158710547
 30
0.0
 10
2584.992394617402
 20
7283.603223344605
 30
0.0
 10
2584.994536437767
 20
7283.604750052907
 30
0.0
  0
LINE
  5
180
330
1F
100
AcDbEntity
  8
0
  6
Continuous
 62
     7
370
    25
100
AcDbLine
 10
2584.8940990925
 20
7282.9925497104
 30
0.0
 11
2584.9829193055
 21
7283.5846729981
 31
0.0
  0
LINE
  5
181
330
1F
100
AcDbEntity
  8
0
  6
Continuous
 62
     7
370
    25
100
AcDbLine
 10
2584.8169925719
 20
7283.5723870392
 30
0.0
 11
2584.8940990925
 21
7282.9925497104
 31
0.0
  0
SPLINE
  5
182
330
1F
100
AcDbEntity
  8
0
  6
Continuous
 62
     7
370
    25
100
AcDbSpline
210
0.0
220
0.0
230
1.0
 70
     8
 71
     3
 72
    10
 73
     6
 74
     0
 42
0.00000001
 43
0.00000001
 40
0.0
 40
0.0
 40
0.0
 40
0.0
 40
0.4990665516923494
 40
0.7492735597632537
 40
1.0
 40
1.0
 40
1.0
 40
1.0
 10
2584.644817009971
 20
7283.604750052907
 30
0.0
 10
2584.646263415238
 20
7283.603672711019
 30
0.0
 10
2584.648434975764
 20
7283.602055243794
 30
0.0
 10
2584.651020284311
 20
7283.588048007156
 30
0.0
 10
2584.651942426234
 20
7283.577610969344
 30
0.0
 10
2584.652403975293
 20
7283.572387039208
 30
0.0
  0
SPLINE
  5
183
330
1F
100
AcDbEntity
  8
0
  6
Continuous
 62
     7
370
    25
100
AcDbSpline
210
0.0
220
0.0
230
1.0
 70
     8
 71
     3
 72
    11
 73
     7
 74
     0
 42
0.00000001
 43
0.00000001
 40
0.0
 40
0.0
 40
0.0
 40
0.0
 40
0.2502250740515236
 40
0.5000221176555042
 40
0.7497760287822737
 40
0.9999999999999999
 40
0.9999999999999999
 40
0.9999999999999999
 40
0.9999999999999999
 10
2584.639362339711
 20
7283.578679847426
 30
0.0
 10
2584.639689939446
 20
7283.582615043268
 30
0.0
 10
2584.640344578529
 20
7283.590478703475
 30
0.0
 10
2584.641684042851
 20
7283.598778413011
 30
0.0
 10
2584.643192761517
 20
7283.604188767978
 30
0.0
 10
2584.64427525458
 20
7283.604562840701
 30
0.0
 10
2584.644817009971
 20
7283.604750052907
 30
0.0
  0
SPLINE
  5
184
330
1F
100
AcDbEntity
  8
0
  6
Continuous
 62
     7
370
    25
100
AcDbSpline
210
0.0
220
0.0
230
1.0
 70
     8
 71
     3
 72
    10
 73
     6
 74
     0
 42
0.00000001
 43
0.00000001
 40
0.0
 40
0.0
 40
0.0
 40
0.0
 40
0.2558734379473929
 40
0.6629806120358913
 40
1.0
 40
1.0
 40
1.0
 40
1.0
 10
2584.638062172567
 20
7283.542421285782
 30
0.0
 10
2584.638082038545
 20
7283.545747213046
 30
0.0
 10
2584.638133512268
 20
7283.554364853506
 30
0.0
 10
2584.638491147336
 20
7283.567268532261
 30
0.0
 10
2584.639090767939
 20
7283.575122664002
 30
0.0
 10
2584.639362339711
 20
7283.578679847426
 30
0.0
  0
SPLINE
  5
185
330
1F
100
AcDbEntity
  8
0
  6
Continuous
 62
     7
370
    25
100
AcDbSpline
210
0.0
220
0.0
230
1.0
 70
     8
 71
     3
 72
    10
 73
     6
 74
     0
 42
0.00000001
 43
0.00000001
 40
0.0
 40
0.0
 40
0.0
 40
0.0
 40
0.4205323629124315
 40
0.7090838547940119
 40
0.9999999999999999
 40
0.9999999999999999
 40
0.9999999999999999
 40
0.9999999999999999
 10
2584.638463271722
 20
7283.519047998112
 30
0.0
 10
2584.638362376853
 20
7283.522243389924
 30
0.0
 10
2584.638192252199
 20
7283.527631324228
 30
0.0
 10
2584.638093893291
 20
7283.535528065046
 30
0.0
 10
2584.638072774868
 20
7283.540117303051
 30
0.0
 10
2584.638062172567
 20
7283.542421285782
 30
0.0
  0
LINE
  5
186
330
1F
100
AcDbEntity
  8
0
  6
Continuous
 62
     7
370
    25
100
AcDbLine
 10
2584.6879550562
 20
7282.8951610118
 30
0.0
 11
2584.6384632717
 21
7283.5190479981
 31
0.0
  0
LINE
  5
187
330
1F
100
AcDbEntity
  8
0
  6
Continuous
 62
     7
370
    25
100
AcDbLine
 10
2584.6395802475
 20
7282.2880548474
 30
0.0
 11
2584.6879550562
 21
7282.8951610118
 31
0.0
  0
SPLINE
  5
188
330
1F
100
AcDbEntity
  8
0
  6
Continuous
 62
     7
370
    25
100
AcDbSpline
210
0.0
220
0.0
230
1.0
 70
     8
 71
     3
 72
     9
 73
     5
 74
     0
 42
0.00000001
 43
0.00000001
 40
0.0
 40
0.0
 40
0.0
 40
0.0
 40
0.5000461132599276
 40
1.0
 40
1.0
 40
1.0
 40
1.0
 10
2584.638062172567
 20
7282.236813409071
 30
0.0
 10
2584.638112906195
 20
7282.245913050418
 30
0.0
 10
2584.638214364094
 20
7282.264110654812
 30
0.0
 10
2584.639124981003
 20
7282.280073940635
 30
0.0
 10
2584.639580247465
 20
7282.288054847428
 30
0.0
  0
SPLINE
  5
189
330
1F
100
AcDbEntity
  8
0
  6
Continuous
 62
     7
370
    25
100
AcDbSpline
210
0.0
220
0.0
230
1.0
 70
     8
 71
     3
 72
    10
 73
     6
 74
     0
 42
0.00000001
 43
0.00000001
 40
0.0
 40
0.0
 40
0.0
 40
0.0
 40
0.2503279413721825
 40
0.4999666459573391
 40
1.0
 40
1.0
 40
1.0
 40
1.0
 10
2584.642540014697
 20
7282.188568546057
 30
0.0
 10
2584.641949155329
 20
7282.190032839512
 30
0.0
 10
2584.64076906343
 20
7282.192957394733
 30
0.0
 10
2584.639001184106
 20
7282.209475140648
 30
0.0
 10
2584.638437890784
 20
7282.225874794326
 30
0.0
 10
2584.638062172567
 20
7282.236813409071
 30
0.0
  0
LINE
  5
18A
330
1F
100
AcDbEntity
  8
0
  6
Continuous
 62
     7
370
    25
100
AcDbLine
 10
2584.6447846921
 20
7282.1855719707
 30
0.0
 11
2584.6425400147
 21
7282.1885685461
 31
0.0
  0
SPLINE
  5
18B
330
1F
100
AcDbEntity
  8
0
  6
Continuous
 62
     7
370
    25
100
AcDbSpline
210
0.0
220
0.0
230
1.0
 70
     8
 71
     3
 72
    10
 73
     6
 74
     0
 42
0.00000001
 43
0.00000001
 40
0.0
 40
0.0
 40
0.0
 40
0.0
 40
0.2502237850968822
 40
0.5004141625175469
 40
1.0
 40
1.0
 40
1.0
 40
1.0
 10
2584.651018368794
 20
7282.204150737838
 30
0.0
 10
2584.650574923519
 20
7282.200921046645
 30
0.0
 10
2584.649688092177
 20
7282.194462095457
 30
0.0
 10
2584.647541308309
 20
7282.187340176268
 30
0.0
 10
2584.64588698781
 20
7282.186279027929
 30
0.0
 10
2584.644784692116
 20
7282.185571970715
 30
0.0
  0
LINE
  5
18C
330
1F
100
AcDbEntity
  8
0
  6
Continuous
 62
     7
370
    25
100
AcDbLine
 10
2584.698936223
 20
7282.7986712858
 30
0.0
 11
2584.6510183688
 21
7282.2041507378
 31
0.0
  0
LINE
  5
18D
330
1F
100
AcDbEntity
  8
0
  6
Continuous
 62
     7
370
    25
100
AcDbLine
 10
2584.755079008
 20
7282.2203322447
 30
0.0
 11
2584.698936223
 21
7282.7986712858
 31
0.0
  0
SPLINE
  5
18E
330
1F
100
AcDbEntity
  8
0
  6
Continuous
 62
     7
370
    25
100
AcDbSpline
210
0.0
220
0.0
230
1.0
 70
     8
 71
     3
 72
     9
 73
     5
 74
     0
 42
0.00000001
 43
0.00000001
 40
0.0
 40
0.0
 40
0.0
 40
0.0
 40
0.4998923417079671
 40
1.0
 40
1.0
 40
1.0
 40
1.0
 10
2584.762490206603
 20
7282.185571970715
 30
0.0
 10
2584.761052127722
 20
7282.189960645446
 30
0.0
 10
2584.758175350543
 20
7282.198739885228
 30
0.0
 10
2584.756111270324
 20
7282.213133758453
 30
0.0
 10
2584.755079008
 20
7282.220332244688
 30
0.0
  0
SPLINE
  5
18F
330
1F
100
AcDbEntity
  8
0
  6
Continuous
 62
     7
370
    25
100
AcDbSpline
210
0.0
220
0.0
230
1.0
 70
     8
 71
     3
 72
    11
 73
     7
 74
     0
 42
0.00000001
 43
0.00000001
 40
0.0
 40
0.0
 40
0.0
 40
0.0
 40
0.2500492632218598
 40
0.4998309992077721
 40
0.7497668917828321
 40
1.0
 40
1.0
 40
1.0
 40
1.0
 10
2584.777910254082
 20
7282.218833957016
 30
0.0
 10
2584.776844215434
 20
7282.213411013119
 30
0.0
 10
2584.774713278692
 20
7282.202570927323
 30
0.0
 10
2584.77078064082
 20
7282.192559635334
 30
0.0
 10
2584.766667902118
 20
7282.186542680167
 30
0.0
 10
2584.763883323335
 20
7282.185895668689
 30
0.0
 10
2584.762490206603
 20
7282.185571970715
 30
0.0
  0
SPLINE
  5
190
330
1F
100
AcDbEntity
  8
0
  6
Continuous
 62
     7
370
    25
100
AcDbSpline
210
0.0
220
0.0
230
1.0
 70
     8
 71
     3
 72
    10
 73
     6
 74
     0
 42
0.00000001
 43
0.00000001
 40
0.0
 40
0.0
 40
0.0
 40
0.0
 40
0.3047058014729814
 40
0.576258104645855
 40
1.0
 40
1.0
 40
1.0
 40
1.0
 10
2584.779642098038
 20
7282.249998340578
 30
0.0
 10
2584.779564935564
 20
7282.246689898935
 30
0.0
 10
2584.779419006274
 20
7282.240432990465
 30
0.0
 10
2584.778900483309
 20
7282.22981672448
 30
0.0
 10
2584.778285221084
 20
7282.222992767198
 30
0.0
 10
2584.777910254082
 20
7282.218833957016
 30
0.0
  0
SPLINE
  5
191
330
1F
100
AcDbEntity
  8
0
  6
Continuous
 62
     7
370
    25
100
AcDbSpline
210
0.0
220
0.0
230
1.0
 70
     8
 71
     3
 72
    10
 73
     6
 74
     0
 42
0.00000001
 43
0.00000001
 40
0.0
 40
0.0
 40
0.0
 40
0.0
 40
0.3325154243637373
 40
0.6634226556244398
 40
1.0
 40
1.0
 40
1.0
 40
1.0
 10
2584.777532368132
 20
7282.277566833728
 30
0.0
 10
2584.777839439818
 20
7282.274699756797
 30
0.0
 10
2584.778452098053
 20
7282.268979469398
 30
0.0
 10
2584.779172749309
 20
7282.25973405679
 30
0.0
 10
2584.779484764964
 20
7282.253261905746
 30
0.0
 10
2584.779642098038
 20
7282.249998340578
 30
0.0
  0
LINE
  5
192
330
1F
100
AcDbEntity
  8
0
  6
Continuous
 62
     7
370
    25
100
AcDbLine
 10
2584.7107633678
 20
7282.8927637515
 30
0.0
 11
2584.7775323681
 21
7282.2775668337
 31
0.0
  0
LINE
  5
193
330
1F
100
AcDbEntity
  8
0
  6
Continuous
 62
     7
370
    25
100
AcDbLine
 10
2584.7727043765
 20
7283.4974726556
 30
0.0
 11
2584.7107633678
 21
7282.8927637515
 31
0.0
  0
SPLINE
  5
194
330
1F
100
AcDbEntity
  8
0
  6
Continuous
 62
     7
370
    25
100
AcDbSpline
210
0.0
220
0.0
230
1.0
 70
     8
 71
     3
 72
    10
 73
     6
 74
     0
 42
0.00000001
 43
0.00000001
 40
0.0
 40
0.0
 40
0.0
 40
0.0
 40
0.2492904803073137
 40
0.499311282106247
 40
1.0
 40
1.0
 40
1.0
 40
1.0
 10
2584.779642098038
 20
7283.550811696742
 30
0.0
 10
2584.779457143703
 20
7283.545201729975
 30
0.0
 10
2584.779086693192
 20
7283.53396536148
 30
0.0
 10
2584.776493954586
 20
7283.515887888004
 30
0.0
 10
2584.774220599663
 20
7283.50484065314
 30
0.0
 10
2584.772704376501
 20
7283.497472655646
 30
0.0
  0
SPLINE
  5
195
330
1F
100
AcDbEntity
  8
0
  6
Continuous
 62
     7
370
    25
100
AcDbSpline
210
0.0
220
0.0
230
1.0
 70
     8
 71
     3
 72
    11
 73
     7
 74
     0
 42
0.00000001
 43
0.00000001
 40
0.0
 40
0.0
 40
0.0
 40
0.0
 40
0.2504737303715101
 40
0.5001199898305102
 40
0.7496164706793691
 40
1.0
 40
1.0
 40
1.0
 40
1.0
 10
2584.770629851251
 20
7283.599655874825
 30
0.0
 10
2584.771690121264
 20
7283.597907679239
 30
0.0
 10
2584.773807158557
 20
7283.594417063447
 30
0.0
 10
2584.7766369062
 20
7283.583981780328
 30
0.0
 10
2584.778677125896
 20
7283.568712694982
 30
0.0
 10
2584.779320060357
 20
7283.556785751033
 30
0.0
 10
2584.779642098038
 20
7283.550811696742
 30
0.0
  0
SPLINE
  5
196
330
1F
100
AcDbEntity
  8
0
  6
Continuous
 62
     7
370
    25
100
AcDbSpline
210
0.0
220
0.0
230
1.0
 70
     8
 71
     3
 72
     9
 73
     5
 74
     0
 42
0.00000001
 43
0.00000001
 40
0.0
 40
0.0
 40
0.0
 40
0.0
 40
0.5001898059386075
 40
1.0
 40
1.0
 40
1.0
 40
1.0
 10
2584.76520217306
 20
7283.604750052907
 30
0.0
 10
2584.766115744444
 20
7283.604357429981
 30
0.0
 10
2584.767942193869
 20
7283.603572482108
 30
0.0
 10
2584.769734192212
 20
7283.600961080145
 30
0.0
 10
2584.770629851251
 20
7283.599655874825
 30
0.0
  0
SPLINE
  5
197
330
1F
100
AcDbEntity
  8
0
  6
Continuous
 62
     7
370
    25
100
AcDbSpline
210
0.0
220
0.0
230
1.0
 70
     8
 71
     3
 72
     9
 73
     5
 74
     0
 42
0.00000001
 43
0.00000001
 40
0.0
 40
0.0
 40
0.0
 40
0.0
 40
0.501830146056758
 40
1.0
 40
1.0
 40
1.0
 40
1.0
 10
2584.757328125449
 20
7283.584672998112
 30
0.0
 10
2584.758497006898
 20
7283.589847482958
 30
0.0
 10
2584.760826244107
 20
7283.600158710547
 30
0.0
 10
2584.763747093796
 20
7283.603223344605
 30
0.0
 10
2584.76520217306
 20
7283.604750052907
 30
0.0
  0
LINE
  5
198
330
1F
100
AcDbEntity
  8
0
  6
Continuous
 62
     7
370
    25
100
AcDbLine
 10
2584.6991489358
 20
7282.9925497104
 30
0.0
 11
2584.7573281254
 21
7283.5846729981
 31
0.0
  0
LINE
  5
199
330
1F
100
AcDbEntity
  8
0
  6
Continuous
 62
     7
370
    25
100
AcDbLine
 10
2584.6524039753
 20
7283.5723870392
 30
0.0
 11
2584.6991489358
 21
7282.9925497104
 31
0.0
  0
SPLINE
  5
19A
330
1F
100
AcDbEntity
  8
0
  6
Continuous
 62
     7
370
    25
100
AcDbSpline
210
0.0
220
0.0
230
1.0
 70
     8
 71
     3
 72
    10
 73
     6
 74
     0
 42
0.00000001
 43
0.00000001
 40
0.0
 40
0.0
 40
0.0
 40
0.0
 40
0.4990665516922619
 40
0.7492735597632674
 40
1.0
 40
1.0
 40
1.0
 40
1.0
 10
2584.574772743815
 20
7283.604750052907
 30
0.0
 10
2584.575102990129
 20
7283.603672711019
 30
0.0
 10
2584.575598805427
 20
7283.602055243794
 30
0.0
 10
2584.576243969195
 20
7283.588048007156
 30
0.0
 10
2584.576481338471
 20
7283.577610969344
 30
0.0
 10
2584.576600146177
 20
7283.572387039208
 30
0.0
  0
SPLINE
  5
19B
330
1F
100
AcDbEntity
  8
0
  6
Continuous
 62
     7
370
    25
100
AcDbSpline
210
0.0
220
0.0
230
1.0
 70
     8
 71
     3
 72
    11
 73
     7
 74
     0
 42
0.00000001
 43
0.00000001
 40
0.0
 40
0.0
 40
0.0
 40
0.0
 40
0.2502250740514369
 40
0.500022117655584
 40
0.7497760287821579
 40
1.0
 40
1.0
 40
1.0
 40
1.0
 10
2584.573645403616
 20
7283.578679847426
 30
0.0
 10
2584.573708427925
 20
7283.582615043268
 30
0.0
 10
2584.573834368733
 20
7283.590478703475
 30
0.0
 10
2584.57410300265
 20
7283.598778413011
 30
0.0
 10
2584.574416791099
 20
7283.604188767978
 30
0.0
 10
2584.574654018566
 20
7283.604562840701
 30
0.0
 10
2584.574772743815
 20
7283.604750052907
 30
0.0
  0
SPLINE
  5
19C
330
1F
100
AcDbEntity
  8
0
  6
Continuous
 62
     7
370
    25
100
AcDbSpline
210
0.0
220
0.0
230
1.0
 70
     8
 71
     3
 72
    10
 73
     6
 74
     0
 42
0.00000001
 43
0.00000001
 40
0.0
 40
0.0
 40
0.0
 40
0.0
 40
0.2558734379475263
 40
0.6629806120875117
 40
1.0
 40
1.0
 40
1.0
 40
1.0
 10
2584.573402079231
 20
7283.542421285782
 30
0.0
 10
2584.573405738014
 20
7283.545747213046
 30
0.0
 10
2584.5734152181
 20
7283.554364853507
 30
0.0
 10
2584.573480464318
 20
7283.567268532261
 30
0.0
 10
2584.573593988041
 20
7283.575122664002
 30
0.0
 10
2584.573645403616
 20
7283.578679847426
 30
0.0
  0
SPLINE
  5
19D
330
1F
100
AcDbEntity
  8
0
  6
Continuous
 62
     7
370
    25
100
AcDbSpline
210
0.0
220
0.0
230
1.0
 70
     8
 71
     3
 72
    10
 73
     6
 74
     0
 42
0.00000001
 43
0.00000001
 40
0.0
 40
0.0
 40
0.0
 40
0.0
 40
0.4205323629124291
 40
0.7090838547940008
 40
1.0
 40
1.0
 40
1.0
 40
1.0
 10
2584.573476053475
 20
7283.519047998112
 30
0.0
 10
2584.573457387354
 20
7283.522243389924
 30
0.0
 10
2584.573425913331
 20
7283.527631324228
 30
0.0
 10
2584.573407897365
 20
7283.535528065046
 30
0.0
 10
2584.573404023878
 20
7283.540117303051
 30
0.0
 10
2584.573402079231
 20
7283.542421285782
 30
0.0
  0
LINE
  5
19E
330
1F
100
AcDbEntity
  8
0
  6
Continuous
 62
     7
370
    25
100
AcDbLine
 10
2584.5882083679
 20
7282.8951610118
 30
0.0
 11
2584.5734760535
 21
7283.5190479981
 31
0.0
  0
LINE
  5
19F
330
1F
100
AcDbEntity
  8
0
  6
Continuous
 62
     7
370
    25
100
AcDbLine
 10
2584.5736871772
 20
7282.2880548474
 30
0.0
 11
2584.5882083679
 21
7282.8951610118
 31
0.0
  0
SPLINE
  5
1A0
330
1F
100
AcDbEntity
  8
0
  6
Continuous
 62
     7
370
    25
100
AcDbSpline
210
0.0
220
0.0
230
1.0
 70
     8
 71
     3
 72
     9
 73
     5
 74
     0
 42
0.00000001
 43
0.00000001
 40
0.0
 40
0.0
 40
0.0
 40
0.0
 40
0.5000461132598952
 40
0.9999999999999999
 40
0.9999999999999999
 40
0.9999999999999999
 40
0.9999999999999999
 10
2584.573402079231
 20
7282.236813409071
 30
0.0
 10
2584.573410983937
 20
7282.245913050418
 30
0.0
 10
2584.573428791706
 20
7282.264110654812
 30
0.0
 10
2584.573601054019
 20
7282.280073940635
 30
0.0
 10
2584.573687177232
 20
7282.288054847428
 30
0.0
  0
SPLINE
  5
1A1
330
1F
100
AcDbEntity
  8
0
  6
Continuous
 62
     7
370
    25
100
AcDbSpline
210
0.0
220
0.0
230
1.0
 70
     8
 71
     3
 72
    10
 73
     6
 74
     0
 42
0.00000001
 43
0.00000001
 40
0.0
 40
0.0
 40
0.0
 40
0.0
 40
0.2503279413722235
 40
0.4999666459572479
 40
1.0
 40
1.0
 40
1.0
 40
1.0
 10
2584.574281892767
 20
7282.188568546057
 30
0.0
 10
2584.574160049373
 20
7282.190032839512
 30
0.0
 10
2584.57391669806
 20
7282.192957394733
 30
0.0
 10
2584.573574568608
 20
7282.209475140648
 30
0.0
 10
2584.57347109585
 20
7282.225874794326
 30
0.0
 10
2584.573402079231
 20
7282.236813409071
 30
0.0
  0
LINE
  5
1A2
330
1F
100
AcDbEntity
  8
0
  6
Continuous
 62
     7
370
    25
100
AcDbLine
 10
2584.5747655816
 20
7282.1855719707
 30
0.0
 11
2584.5742818928
 21
7282.1885685461
 31
0.0
  0
SPLINE
  5
1A3
330
1F
100
AcDbEntity
  8
0
  6
Continuous
 62
     7
370
    25
100
AcDbSpline
210
0.0
220
0.0
230
1.0
 70
     8
 71
     3
 72
    10
 73
     6
 74
     0
 42
0.00000001
 43
0.00000001
 40
0.0
 40
0.0
 40
0.0
 40
0.0
 40
0.2502237850968987
 40
0.5004141625175067
 40
1.0
 40
1.0
 40
1.0
 40
1.0
 10
2584.576245568135
 20
7282.204150737838
 30
0.0
 10
2584.576134298236
 20
7282.200921046645
 30
0.0
 10
2584.575911773293
 20
7282.194462095457
 30
0.0
 10
2584.575389780187
 20
7282.187340176268
 30
0.0
 10
2584.575015181576
 20
7282.186279027929
 30
0.0
 10
2584.574765581551
 20
7282.185571970715
 30
0.0
  0
LINE
  5
1A4
330
1F
100
AcDbEntity
  8
0
  6
Continuous
 62
     7
370
    25
100
AcDbLine
 10
2584.5925653906
 20
7282.7986712858
 30
0.0
 11
2584.5762455681
 21
7282.2041507378
 31
0.0
  0
LINE
  5
1A5
330
1F
100
AcDbEntity
  8
0
  6
Continuous
 62
     7
370
    25
100
AcDbLine
 10
2584.6186299359
 20
7282.2203322447
 30
0.0
 11
2584.5925653906
 21
7282.7986712858
 31
0.0
  0
SPLINE
  5
1A6
330
1F
100
AcDbEntity
  8
0
  6
Continuous
 62
     7
370
    25
100
AcDbSpline
210
0.0
220
0.0
230
1.0
 70
     8
 71
     3
 72
     9
 73
     5
 74
     0
 42
0.00000001
 43
0.00000001
 40
0.0
 40
0.0
 40
0.0
 40
0.0
 40
0.4998923417081672
 40
1.0
 40
1.0
 40
1.0
 40
1.0
 10
2584.622441714166
 20
7282.185571970715
 30
0.0
 10
2584.621697610394
 20
7282.189960645446
 30
0.0
 10
2584.620209082345
 20
7282.198739885228
 30
0.0
 10
2584.619156393603
 20
7282.213133758453
 30
0.0
 10
2584.618629935901
 20
7282.220332244688
 30
0.0
  0
SPLINE
  5
1A7
330
1F
100
AcDbEntity
  8
0
  6
Continuous
 62
     7
370
    25
100
AcDbSpline
210
0.0
220
0.0
230
1.0
 70
     8
 71
     3
 72
    11
 73
     7
 74
     0
 42
0.00000001
 43
0.00000001
 40
0.0
 40
0.0
 40
0.0
 40
0.0
 40
0.2500492632217298
 40
0.4998309992078896
 40
0.7497668917829514
 40
1.0
 40
1.0
 40
1.0
 40
1.0
 10
2584.630592970345
 20
7282.218833957016
 30
0.0
 10
2584.630020692341
 20
7282.213411013119
 30
0.0
 10
2584.62887674861
 20
7282.202570927323
 30
0.0
 10
2584.626785666545
 20
7282.192559635334
 30
0.0
 10
2584.624617008917
 20
7282.186542680167
 30
0.0
 10
2584.62316709961
 20
7282.18589566869
 30
0.0
 10
2584.622441714166
 20
7282.185571970715
 30
0.0
  0
SPLINE
  5
1A8
330
1F
100
AcDbEntity
  8
0
  6
Continuous
 62
     7
370
    25
100
AcDbSpline
210
0.0
220
0.0
230
1.0
 70
     8
 71
     3
 72
    10
 73
     6
 74
     0
 42
0.00000001
 43
0.00000001
 40
0.0
 40
0.0
 40
0.0
 40
0.0
 40
0.3047058014729424
 40
0.5762581046422762
 40
1.0
 40
1.0
 40
1.0
 40
1.0
 10
2584.631525919677
 20
7282.249998340578
 30
0.0
 10
2584.631484283943
 20
7282.246689898935
 30
0.0
 10
2584.631405542651
 20
7282.240432990465
 30
0.0
 10
2584.631125857201
 20
7282.22981672448
 30
0.0
 10
2584.630794756943
 20
7282.222992767198
 30
0.0
 10
2584.630592970345
 20
7282.218833957016
 30
0.0
  0
SPLINE
  5
1A9
330
1F
100
AcDbEntity
  8
0
  6
Continuous
 62
     7
370
    25
100
AcDbSpline
210
0.0
220
0.0
230
1.0
 70
     8
 71
     3
 72
    10
 73
     6
 74
     0
 42
0.00000001
 43
0.00000001
 40
0.0
 40
0.0
 40
0.0
 40
0.0
 40
0.3325154243639104
 40
0.663422655624572
 40
1.0
 40
1.0
 40
1.0
 40
1.0
 10
2584.63038985394
 20
7282.277566833728
 30
0.0
 10
2584.630554942613
 20
7282.274699756797
 30
0.0
 10
2584.630884321517
 20
7282.268979469398
 30
0.0
 10
2584.631272687495
 20
7282.25973405679
 30
0.0
 10
2584.631441032267
 20
7282.253261905746
 30
0.0
 10
2584.631525919677
 20
7282.249998340578
 30
0.0
  0
LINE
  5
1AA
330
1F
100
AcDbEntity
  8
0
  6
Continuous
 62
     7
370
    25
100
AcDbLine
 10
2584.5975720306
 20
7282.8927637515
 30
0.0
 11
2584.6303898539
 21
7282.2775668337
 31
0.0
  0
LINE
  5
1AB
330
1F
100
AcDbEntity
  8
0
  6
Continuous
 62
     7
370
    25
100
AcDbLine
 10
2584.6278092594
 20
7283.4974726556
 30
0.0
 11
2584.5975720306
 21
7282.8927637515
 31
0.0
  0
SPLINE
  5
1AC
330
1F
100
AcDbEntity
  8
0
  6
Continuous
 62
     7
370
    25
100
AcDbSpline
210
0.0
220
0.0
230
1.0
 70
     8
 71
     3
 72
    10
 73
     6
 74
     0
 42
0.00000001
 43
0.00000001
 40
0.0
 40
0.0
 40
0.0
 40
0.0
 40
0.2492904803073857
 40
0.4993112821062557
 40
1.0
 40
1.0
 40
1.0
 40
1.0
 10
2584.631525919677
 20
7283.550811696742
 30
0.0
 10
2584.631426089612
 20
7283.545201729975
 30
0.0
 10
2584.63122613702
 20
7283.53396536148
 30
0.0
 10
2584.629829957768
 20
7283.515887888004
 30
0.0
 10
2584.628617747755
 20
7283.50484065314
 30
0.0
 10
2584.627809259438
 20
7283.497472655646
 30
0.0
  0
SPLINE
  5
1AD
330
1F
100
AcDbEntity
  8
0
  6
Continuous
 62
     7
370
    25
100
AcDbSpline
210
0.0
220
0.0
230
1.0
 70
     8
 71
     3
 72
    11
 73
     7
 74
     0
 42
0.00000001
 43
0.00000001
 40
0.0
 40
0.0
 40
0.0
 40
0.0
 40
0.2504737303714594
 40
0.5001199898305121
 40
0.7496164706793546
 40
1.0
 40
1.0
 40
1.0
 40
1.0
 10
2584.626708812215
 20
7283.599655874825
 30
0.0
 10
2584.627271133684
 20
7283.597907679239
 30
0.0
 10
2584.628393918924
 20
7283.594417063447
 30
0.0
 10
2584.629908161498
 20
7283.583981780328
 30
0.0
 10
2584.631005229116
 20
7283.568712694982
 30
0.0
 10
2584.63135215095
 20
7283.556785751033
 30
0.0
 10
2584.631525919677
 20
7283.550811696742
 30
0.0
  0
SPLINE
  5
1AE
330
1F
100
AcDbEntity
  8
0
  6
Continuous
 62
     7
370
    25
100
AcDbSpline
210
0.0
220
0.0
230
1.0
 70
     8
 71
     3
 72
     9
 73
     5
 74
     0
 42
0.00000001
 43
0.00000001
 40
0.0
 40
0.0
 40
0.0
 40
0.0
 40
0.5001898059141883
 40
1.0
 40
1.0
 40
1.0
 40
1.0
 10
2584.623854289809
 20
7283.604750052907
 30
0.0
 10
2584.624332500378
 20
7283.604357429981
 30
0.0
 10
2584.625288558584
 20
7283.603572482108
 30
0.0
 10
2584.626235514163
 20
7283.600961080145
 30
0.0
 10
2584.626708812215
 20
7283.599655874825
 30
0.0
  0
SPLINE
  5
1AF
330
1F
100
AcDbEntity
  8
0
  6
Continuous
 62
     7
370
    25
100
AcDbSpline
210
0.0
220
0.0
230
1.0
 70
     8
 71
     3
 72
     9
 73
     5
 74
     0
 42
0.00000001
 43
0.00000001
 40
0.0
 40
0.0
 40
0.0
 40
0.0
 40
0.5018301460567296
 40
1.0
 40
1.0
 40
1.0
 40
1.0
 10
2584.619779059412
 20
7283.584672998112
 30
0.0
 10
2584.620379032594
 20
7283.589847482958
 30
0.0
 10
2584.621574602819
 20
7283.600158710547
 30
0.0
 10
2584.623096250704
 20
7283.603223344605
 30
0.0
 10
2584.623854289809
 20
7283.604750052907
 30
0.0
  0
LINE
  5
1B0
330
1F
100
AcDbEntity
  8
0
  6
Continuous
 62
     7
370
    25
100
AcDbLine
 10
2584.5926526856
 20
7282.9925497104
 30
0.0
 11
2584.6197790594
 21
7283.5846729981
 31
0.0
  0
LINE
  5
1B1
330
1F
100
AcDbEntity
  8
0
  6
Continuous
 62
     7
370
    25
100
AcDbLine
 10
2584.5766001462
 20
7283.5723870392
 30
0.0
 11
2584.5926526856
 21
7282.9925497104
 31
0.0
  0
LINE
  5
1B2
330
1F
100
AcDbEntity
  8
0
  6
Continuous
 62
     7
370
    25
100
AcDbLine
 10
2584.5732359867
 20
7282.7402623154
 30
0.0
 11
2584.5716182097
 21
7282.7399384091
 31
0.0
  0
LINE
  5
1B3
330
1F
100
AcDbEntity
  8
0
  6
Continuous
 62
     7
370
    25
100
AcDbLine
 10
2584.5716055675
 20
7282.6266678611
 30
0.0
 11
2584.5711624326
 21
7282.6266678611
 31
0.0
  0
SPLINE
  5
1B4
330
1F
100
AcDbEntity
  8
0
  6
Continuous
 62
     7
370
    25
100
AcDbSpline
210
0.0
220
0.0
230
1.0
 70
     8
 71
     3
 72
    11
 73
     7
 74
     0
 42
0.00000001
 43
0.00000001
 40
0.0
 40
0.0
 40
0.0
 40
0.0
 40
0.1247652896758542
 40
0.4996017925282017
 40
0.749209663893555
 40
0.9999999999999999
 40
0.9999999999999999
 40
0.9999999999999999
 40
0.9999999999999999
 10
2584.572342283774
 20
7282.684202107701
 30
0.0
 10
2584.572329175124
 20
7282.680399286891
 30
0.0
 10
2584.572276683722
 20
7282.665171525241
 30
0.0
 10
2584.572089155715
 20
7282.644783613319
 30
0.0
 10
2584.571814331573
 20
7282.630833431094
 30
0.0
 10
2584.571675265031
 20
7282.628058570158
 30
0.0
 10
2584.571605567451
 20
7282.626667861125
 30
0.0
  0
SPLINE
  5
1B5
330
1F
100
AcDbEntity
  8
0
  6
Continuous
 62
     7
370
    25
100
AcDbSpline
210
0.0
220
0.0
230
1.0
 70
     8
 71
     3
 72
    12
 73
     8
 74
     0
 42
0.00000001
 43
0.00000001
 40
0.0
 40
0.0
 40
0.0
 40
0.0
 40
0.498878145304097
 40
0.6196312873304671
 40
0.74690643494257
 40
0.8663109629863337
 40
1.0
 40
1.0
 40
1.0
 40
1.0
 10
2584.571618209674
 20
7282.73993840907
 30
0.0
 10
2584.57176912037
 20
7282.736585850955
 30
0.0
 10
2584.571956558906
 20
7282.73242180825
 30
0.0
 10
2584.572185514096
 20
7282.717187937824
 30
0.0
 10
2584.572270399889
 20
7282.707576401128
 30
0.0
 10
2584.57233433033
 20
7282.696422418072
 30
0.0
 10
2584.572339534715
 20
7282.68842598312
 30
0.0
 10
2584.572342283774
 20
7282.684202107701
 30
0.0
  0
LINE
  5
1B6
330
1F
100
AcDbEntity
  8
0
  6
Continuous
 62
     7
370
    25
100
AcDbLine
 10
2585.9062768976
 20
7284.1663938885
 30
0.0
 11
2585.9062768976
 21
7281.6663938885
 31
0.0
  0
LINE
  5
1B7
330
1F
100
AcDbEntity
  8
0
  6
Continuous
 62
     7
370
    25
100
AcDbLine
 10
2585.7933780422
 20
7284.1663938885
 30
0.0
 11
2585.9062768976
 21
7284.1663938885
 31
0.0
  0
LINE
  5
1B8
330
1F
100
AcDbEntity
  8
0
  6
Continuous
 62
     7
370
    25
100
AcDbLine
 10
2585.7933780422
 20
7281.6663938885
 30
0.0
 11
2585.9062768976
 21
7281.6663938885
 31
0.0
  0
LINE
  5
1B9
330
1F
100
AcDbEntity
  8
0
  6
Continuous
 62
     7
370
    25
100
AcDbLine
 10
2585.5478404079
 20
7282.9925497104
 30
0.0
 11
2585.6957856153
 21
7283.5846729981
 31
0.0
  0
SPLINE
  5
1BA
330
1F
100
AcDbEntity
  8
0
  6
Continuous
 62
     7
370
    25
100
AcDbSpline
210
0.0
220
0.0
230
1.0
 70
     8
 71
     3
 72
     9
 73
     5
 74
     0
 42
0.00000001
 43
0.00000001
 40
0.0
 40
0.0
 40
0.0
 40
0.0
 40
0.5018528075883423
 40
0.9999999999999999
 40
0.9999999999999999
 40
0.9999999999999999
 40
0.9999999999999999
 10
2585.695785615283
 20
7283.584672998112
 30
0.0
 10
2585.698594600517
 20
7283.589847461709
 30
0.0
 10
2585.704191829809
 20
7283.600158181345
 30
0.0
 10
2585.711145111555
 20
7283.603223214998
 30
0.0
 10
2585.714608869335
 20
7283.604750052907
 30
0.0
  0
SPLINE
  5
1BB
330
1F
100
AcDbEntity
  8
0
  6
Continuous
 62
     7
370
    25
100
AcDbSpline
210
0.0
220
0.0
230
1.0
 70
     8
 71
     3
 72
     9
 73
     5
 74
     0
 42
0.00000001
 43
0.00000001
 40
0.0
 40
0.0
 40
0.0
 40
0.0
 40
0.4998675798210157
 40
0.9999999999999999
 40
0.9999999999999999
 40
0.9999999999999999
 40
0.9999999999999999
 10
2585.708152505189
 20
7282.185571970715
 30
0.0
 10
2585.704714131231
 20
7282.189960835146
 30
0.0
 10
2585.697835561591
 20
7282.198740889324
 30
0.0
 10
2585.692855429968
 20
7282.21313385562
 30
0.0
 10
2585.690364704688
 20
7282.220332244688
 30
0.0
  0
LINE
  5
1BC
330
1F
100
AcDbEntity
  8
0
  6
Continuous
 62
     7
370
    25
100
AcDbLine
 10
2585.6903647047
 20
7282.2203322447
 30
0.0
 11
2585.5472641949
 21
7282.7986712858
 31
0.0
  0
LINE
  5
1BD
330
1F
100
AcDbEntity
  8
0
  6
Continuous
 62
     7
370
    25
100
AcDbLine
 10
2585.387434355
 20
7282.1855719707
 30
0.0
 11
2585.3800541701
 21
7282.1885685461
 31
0.0
  0
SPLINE
  5
1BE
330
1F
100
AcDbEntity
  8
0
  6
Continuous
 62
     7
370
    25
100
AcDbSpline
210
0.0
220
0.0
230
1.0
 70
     8
 71
     3
 72
    10
 73
     6
 74
     0
 42
0.00000001
 43
0.00000001
 40
0.0
 40
0.0
 40
0.0
 40
0.0
 40
0.250284038022651
 40
0.4999128011859422
 40
0.9999999999999999
 40
0.9999999999999999
 40
0.9999999999999999
 40
0.9999999999999999
 10
2585.380054170088
 20
7282.188568546057
 30
0.0
 10
2585.378095191244
 20
7282.190032959392
 30
0.0
 10
2585.374182362408
 20
7282.192957952044
 30
0.0
 10
2585.368254554749
 20
7282.209476926656
 30
0.0
 10
2585.366349588043
 20
7282.225875186681
 30
0.0
 10
2585.36507890753
 20
7282.236813409071
 30
0.0
  0
SPLINE
  5
1BF
330
1F
100
AcDbEntity
  8
0
  6
Continuous
 62
     7
370
    25
100
AcDbSpline
210
0.0
220
0.0
230
1.0
 70
     8
 71
     3
 72
     9
 73
     5
 74
     0
 42
0.00000001
 43
0.00000001
 40
0.0
 40
0.0
 40
0.0
 40
0.0
 40
0.5000617086091496
 40
1.0
 40
1.0
 40
1.0
 40
1.0
 10
2585.36507890753
 20
7282.236813409071
 30
0.0
 10
2585.365251707979
 20
7282.245912928815
 30
0.0
 10
2585.365597266229
 20
7282.264109722505
 30
0.0
 10
2585.36866251482
 20
7282.280073795867
 30
0.0
 10
2585.370194949962
 20
7282.288054847428
 30
0.0
  0
LINE
  5
1C0
330
1F
100
AcDbEntity
  8
0
  6
Continuous
 62
     7
370
    25
100
AcDbLine
 10
2585.37019495
 20
7282.2880548474
 30
0.0
 11
2585.5170733698
 21
7282.8951610118
 31
0.0
  0
LINE
  5
1C1
330
1F
100
AcDbEntity
  8
0
  6
Continuous
 62
     7
370
    25
100
AcDbLine
 10
2585.5170733698
 20
7282.8951610118
 30
0.0
 11
2585.3664346655
 21
7283.5190479981
 31
0.0
  0
SPLINE
  5
1C2
330
1F
100
AcDbEntity
  8
0
  6
Continuous
 62
     7
370
    25
100
AcDbSpline
210
0.0
220
0.0
230
1.0
 70
     8
 71
     3
 72
     9
 73
     5
 74
     0
 42
0.00000001
 43
0.00000001
 40
0.0
 40
0.0
 40
0.0
 40
0.0
 40
0.499939915500571
 40
0.9999999999999999
 40
0.9999999999999999
 40
0.9999999999999999
 40
0.9999999999999999
 10
2585.366434665541
 20
7283.519047998112
 30
0.0
 10
2585.366047482741
 20
7283.522865939588
 30
0.0
 10
2585.365273024073
 20
7283.530502740246
 30
0.0
 10
2585.365143618228
 20
7283.538448119009
 30
0.0
 10
2585.36507890753
 20
7283.542421285782
 30
0.0
  0
SPLINE
  5
1C3
330
1F
100
AcDbEntity
  8
0
  6
Continuous
 62
     7
370
    25
100
AcDbSpline
210
0.0
220
0.0
230
1.0
 70
     8
 71
     3
 72
     9
 73
     5
 74
     0
 42
0.00000001
 43
0.00000001
 40
0.0
 40
0.0
 40
0.0
 40
0.0
 40
0.5003682129158251
 40
1.0
 40
1.0
 40
1.0
 40
1.0
 10
2585.36507890753
 20
7283.542421285782
 30
0.0
 10
2585.365187676966
 20
7283.549088379486
 30
0.0
 10
2585.365405055754
 20
7283.56241275448
 30
0.0
 10
2585.368111087674
 20
7283.573260145878
 30
0.0
 10
2585.369463107238
 20
7283.578679847426
 30
0.0
  0
SPLINE
  5
1C4
330
1F
100
AcDbEntity
  8
0
  6
Continuous
 62
     7
370
    25
100
AcDbSpline
210
0.0
220
0.0
230
1.0
 70
     8
 71
     3
 72
    11
 73
     7
 74
     0
 42
0.00000001
 43
0.00000001
 40
0.0
 40
0.0
 40
0.0
 40
0.0
 40
0.2502556926832449
 40
0.5000591285676074
 40
0.7497998166589701
 40
1.0
 40
1.0
 40
1.0
 40
1.0
 10
2585.369463107238
 20
7283.578679847426
 30
0.0
 10
2585.370562658288
 20
7283.582614983507
 30
0.0
 10
2585.372759773304
 20
7283.590478144173
 30
0.0
 10
2585.377223155355
 20
7283.598778164592
 30
0.0
 10
2585.382217300993
 20
7283.604188721295
 30
0.0
 10
2585.385764695121
 20
7283.604562827755
 30
0.0
 10
2585.38754002239
 20
7283.604750052907
 30
0.0
  0
LINE
  5
1C5
330
1F
100
AcDbEntity
  8
0
  6
Continuous
 62
     7
370
    25
100
AcDbLine
 10
2585.6912292061
 20
7283.5846729981
 30
0.0
 11
2585.6957856153
 21
7283.5846729981
 31
0.0
  0
LINE
  5
1C6
330
1F
100
AcDbEntity
  8
0
  6
Continuous
 62
     7
370
    25
100
AcDbLine
 10
2585.7100599178
 20
7283.6047500529
 30
0.0
 11
2585.7146088693
 21
7283.6047500529
 31
0.0
  0
LINE
  5
1C7
330
1F
100
AcDbEntity
  8
0
  6
Continuous
 62
     7
370
    25
100
AcDbLine
 10
2585.6858061477
 20
7282.2203322447
 30
0.0
 11
2585.6903647047
 21
7282.2203322447
 31
0.0
  0
LINE
  5
1C8
330
1F
100
AcDbEntity
  8
0
  6
Continuous
 62
     7
370
    25
100
AcDbLine
 10
2585.5432253834
 20
7282.9925497104
 30
0.0
 11
2585.5478404079
 21
7282.9925497104
 31
0.0
  0
LINE
  5
1C9
330
1F
100
AcDbEntity
  8
0
  6
Continuous
 62
     7
370
    25
100
AcDbLine
 10
2585.5426489421
 20
7282.7986712858
 30
0.0
 11
2585.5472641949
 21
7282.7986712858
 31
0.0
  0
LINE
  5
1CA
330
1F
100
AcDbEntity
  8
0
  6
Continuous
 62
     7
370
    25
100
AcDbLine
 10
2585.3617477686
 20
7283.5190479981
 30
0.0
 11
2585.3664346655
 21
7283.5190479981
 31
0.0
  0
LINE
  5
1CB
330
1F
100
AcDbEntity
  8
0
  6
Continuous
 62
     7
370
    25
100
AcDbLine
 10
2585.5124461554
 20
7282.8951610118
 30
0.0
 11
2585.5170733698
 21
7282.8951610118
 31
0.0
  0
LINE
  5
1CC
330
1F
100
AcDbEntity
  8
0
  6
Continuous
 62
     7
370
    25
100
AcDbLine
 10
2585.3655095429
 20
7282.2880548474
 30
0.0
 11
2585.37019495
 21
7282.2880548474
 31
0.0
  0
LINE
  5
1CD
330
1F
100
AcDbEntity
  8
0
  6
Continuous
 62
     7
370
    25
100
AcDbLine
 10
2585.3647774102
 20
7283.5786798474
 30
0.0
 11
2585.3694631072
 21
7283.5786798474
 31
0.0
  0
LINE
  5
1CE
330
1F
100
AcDbEntity
  8
0
  6
Continuous
 62
     7
370
    25
100
AcDbLine
 10
2585.3828614874
 20
7283.6047500529
 30
0.0
 11
2585.3875400224
 21
7283.6047500529
 31
0.0
  0
LINE
  5
1CF
330
1F
100
AcDbEntity
  8
0
  6
Continuous
 62
     7
370
    25
100
AcDbLine
 10
2585.3753726692
 20
7282.1885685461
 30
0.0
 11
2585.3800541701
 21
7282.1885685461
 31
0.0
  0
LINE
  5
1D0
330
1F
100
AcDbEntity
  8
0
  6
Continuous
 62
     7
370
    25
100
AcDbLine
 10
2585.3827557781
 20
7282.1855719707
 30
0.0
 11
2585.387434355
 21
7282.1855719707
 31
0.0
  0
LINE
  5
1D1
330
1F
100
AcDbEntity
  8
0
  6
Continuous
 62
     7
370
    25
100
AcDbLine
 10
2585.3603914735
 20
7282.2368134091
 30
0.0
 11
2585.3650789075
 21
7282.2368134091
 31
0.0
  0
LINE
  5
1D2
330
1F
100
AcDbEntity
  8
0
  6
Continuous
 62
     7
370
    25
100
AcDbLine
 10
2585.3603914735
 20
7283.5424212858
 30
0.0
 11
2585.3650789075
 21
7283.5424212858
 31
0.0
  0
LINE
  5
1D3
330
1F
100
AcDbEntity
  8
0
  6
Continuous
 62
     7
370
    25
100
AcDbLine
 10
2585.1808837093
 20
7282.9925497104
 30
0.0
 11
2585.2996692135
 21
7283.5846729981
 31
0.0
  0
SPLINE
  5
1D4
330
1F
100
AcDbEntity
  8
0
  6
Continuous
 62
     7
370
    25
100
AcDbSpline
210
0.0
220
0.0
230
1.0
 70
     8
 71
     3
 72
     9
 73
     5
 74
     0
 42
0.00000001
 43
0.00000001
 40
0.0
 40
0.0
 40
0.0
 40
0.0
 40
0.5018528075875502
 40
1.0
 40
1.0
 40
1.0
 40
1.0
 10
2585.299669213455
 20
7283.584672998112
 30
0.0
 10
2585.301946154541
 20
7283.589847461709
 30
0.0
 10
2585.306483224078
 20
7283.600158181345
 30
0.0
 10
2585.312128817243
 20
7283.603223214998
 30
0.0
 10
2585.314941153627
 20
7283.604750052907
 30
0.0
  0
SPLINE
  5
1D5
330
1F
100
AcDbEntity
  8
0
  6
Continuous
 62
     7
370
    25
100
AcDbSpline
210
0.0
220
0.0
230
1.0
 70
     8
 71
     3
 72
     9
 73
     5
 74
     0
 42
0.00000001
 43
0.00000001
 40
0.0
 40
0.0
 40
0.0
 40
0.0
 40
0.4998675798208156
 40
0.9999999999999999
 40
0.9999999999999999
 40
0.9999999999999999
 40
0.9999999999999999
 10
2585.309699129568
 20
7282.185571970715
 30
0.0
 10
2585.306909535041
 20
7282.189960835146
 30
0.0
 10
2585.301328868001
 20
7282.198740889324
 30
0.0
 10
2585.297294831505
 20
7282.21313385562
 30
0.0
 10
2585.29527727907
 20
7282.220332244688
 30
0.0
  0
LINE
  5
1D6
330
1F
100
AcDbEntity
  8
0
  6
Continuous
 62
     7
370
    25
100
AcDbLine
 10
2585.2952772791
 20
7282.2203322447
 30
0.0
 11
2585.1804257363
 21
7282.7986712858
 31
0.0
  0
LINE
  5
1D7
330
1F
100
AcDbEntity
  8
0
  6
Continuous
 62
     7
370
    25
100
AcDbLine
 10
2585.0550248839
 20
7282.1855719707
 30
0.0
 11
2585.0493205046
 21
7282.1885685461
 31
0.0
  0
SPLINE
  5
1D8
330
1F
100
AcDbEntity
  8
0
  6
Continuous
 62
     7
370
    25
100
AcDbSpline
210
0.0
220
0.0
230
1.0
 70
     8
 71
     3
 72
    10
 73
     6
 74
     0
 42
0.00000001
 43
0.00000001
 40
0.0
 40
0.0
 40
0.0
 40
0.0
 40
0.2502840380222929
 40
0.4999128011859738
 40
1.0
 40
1.0
 40
1.0
 40
1.0
 10
2585.049320504641
 20
7282.188568546057
 30
0.0
 10
2585.04780801212
 20
7282.190032959392
 30
0.0
 10
2585.044786986969
 20
7282.192957952044
 30
0.0
 10
2585.040216993595
 20
7282.209476926656
 30
0.0
 10
2585.038750025764
 20
7282.225875186681
 30
0.0
 10
2585.037771506071
 20
7282.236813409071
 30
0.0
  0
SPLINE
  5
1D9
330
1F
100
AcDbEntity
  8
0
  6
Continuous
 62
     7
370
    25
100
AcDbSpline
210
0.0
220
0.0
230
1.0
 70
     8
 71
     3
 72
     9
 73
     5
 74
     0
 42
0.00000001
 43
0.00000001
 40
0.0
 40
0.0
 40
0.0
 40
0.0
 40
0.5000617086091894
 40
1.0
 40
1.0
 40
1.0
 40
1.0
 10
2585.037771506071
 20
7282.236813409071
 30
0.0
 10
2585.037904452915
 20
7282.245912928815
 30
0.0
 10
2585.038170313792
 20
7282.264109722505
 30
0.0
 10
2585.040532259995
 20
7282.280073795867
 30
0.0
 10
2585.041713087344
 20
7282.288054847428
 30
0.0
  0
LINE
  5
1DA
330
1F
100
AcDbEntity
  8
0
  6
Continuous
 62
     7
370
    25
100
AcDbLine
 10
2585.0417130873
 20
7282.2880548474
 30
0.0
 11
2585.156485276
 21
7282.8951610118
 31
0.0
  0
LINE
  5
1DB
330
1F
100
AcDbEntity
  8
0
  6
Continuous
 62
     7
370
    25
100
AcDbLine
 10
2585.156485276
 20
7282.8951610118
 30
0.0
 11
2585.0388156291
 21
7283.5190479981
 31
0.0
  0
SPLINE
  5
1DC
330
1F
100
AcDbEntity
  8
0
  6
Continuous
 62
     7
370
    25
100
AcDbSpline
210
0.0
220
0.0
230
1.0
 70
     8
 71
     3
 72
     9
 73
     5
 74
     0
 42
0.00000001
 43
0.00000001
 40
0.0
 40
0.0
 40
0.0
 40
0.0
 40
0.4999399155006888
 40
0.9999999999999999
 40
0.9999999999999999
 40
0.9999999999999999
 40
0.9999999999999999
 10
2585.038815629133
 20
7283.519047998112
 30
0.0
 10
2585.038517430259
 20
7283.522865939588
 30
0.0
 10
2585.037920960834
 20
7283.530502740246
 30
0.0
 10
2585.037821328316
 20
7283.538448119009
 30
0.0
 10
2585.037771506071
 20
7283.542421285782
 30
0.0
  0
SPLINE
  5
1DD
330
1F
100
AcDbEntity
  8
0
  6
Continuous
 62
     7
370
    25
100
AcDbSpline
210
0.0
220
0.0
230
1.0
 70
     8
 71
     3
 72
     9
 73
     5
 74
     0
 42
0.00000001
 43
0.00000001
 40
0.0
 40
0.0
 40
0.0
 40
0.0
 40
0.5003682129157873
 40
1.0
 40
1.0
 40
1.0
 40
1.0
 10
2585.037771506071
 20
7283.542421285782
 30
0.0
 10
2585.037855171202
 20
7283.549088379486
 30
0.0
 10
2585.038022378328
 20
7283.56241275448
 30
0.0
 10
2585.040107302986
 20
7283.573260145878
 30
0.0
 10
2585.041148997619
 20
7283.578679847426
 30
0.0
  0
SPLINE
  5
1DE
330
1F
100
AcDbEntity
  8
0
  6
Continuous
 62
     7
370
    25
100
AcDbSpline
210
0.0
220
0.0
230
1.0
 70
     8
 71
     3
 72
    11
 73
     7
 74
     0
 42
0.00000001
 43
0.00000001
 40
0.0
 40
0.0
 40
0.0
 40
0.0
 40
0.2502556926832345
 40
0.5000591285672005
 40
0.7497998166588302
 40
0.9999999999999999
 40
0.9999999999999999
 40
0.9999999999999999
 40
0.9999999999999999
 10
2585.041148997619
 20
7283.578679847426
 30
0.0
 10
2585.041996575704
 20
7283.582614983507
 30
0.0
 10
2585.043690200149
 20
7283.590478144173
 30
0.0
 10
2585.047134012403
 20
7283.598778164592
 30
0.0
 10
2585.050990707555
 20
7283.604188721295
 30
0.0
 10
2585.05373380741
 20
7283.604562827755
 30
0.0
 10
2585.055106617927
 20
7283.604750052907
 30
0.0
  0
LINE
  5
1DF
330
1F
100
AcDbEntity
  8
0
  6
Continuous
 62
     7
370
    25
100
AcDbLine
 10
2585.2949558643
 20
7283.5846729981
 30
0.0
 11
2585.2996692135
 21
7283.5846729981
 31
0.0
  0
LINE
  5
1E0
330
1F
100
AcDbEntity
  8
0
  6
Continuous
 62
     7
370
    25
100
AcDbLine
 10
2585.3102338552
 20
7283.6047500529
 30
0.0
 11
2585.3149411536
 21
7283.6047500529
 31
0.0
  0
LINE
  5
1E1
330
1F
100
AcDbEntity
  8
0
  6
Continuous
 62
     7
370
    25
100
AcDbLine
 10
2585.2905621899
 20
7282.2203322447
 30
0.0
 11
2585.2952772791
 21
7282.2203322447
 31
0.0
  0
LINE
  5
1E2
330
1F
100
AcDbEntity
  8
0
  6
Continuous
 62
     7
370
    25
100
AcDbLine
 10
2585.1761232978
 20
7282.9925497104
 30
0.0
 11
2585.1808837093
 21
7282.9925497104
 31
0.0
  0
LINE
  5
1E3
330
1F
100
AcDbEntity
  8
0
  6
Continuous
 62
     7
370
    25
100
AcDbLine
 10
2585.1756651433
 20
7282.7986712858
 30
0.0
 11
2585.1804257363
 21
7282.7986712858
 31
0.0
  0
LINE
  5
1E4
330
1F
100
AcDbEntity
  8
0
  6
Continuous
 62
     7
370
    25
100
AcDbLine
 10
2585.0339989307
 20
7283.5190479981
 30
0.0
 11
2585.0388156291
 21
7283.5190479981
 31
0.0
  0
LINE
  5
1E5
330
1F
100
AcDbEntity
  8
0
  6
Continuous
 62
     7
370
    25
100
AcDbLine
 10
2585.1517151979
 20
7282.8951610118
 30
0.0
 11
2585.156485276
 21
7282.8951610118
 31
0.0
  0
LINE
  5
1E6
330
1F
100
AcDbEntity
  8
0
  6
Continuous
 62
     7
370
    25
100
AcDbLine
 10
2585.0368975369
 20
7282.2880548474
 30
0.0
 11
2585.0417130873
 21
7282.2880548474
 31
0.0
  0
LINE
  5
1E7
330
1F
100
AcDbEntity
  8
0
  6
Continuous
 62
     7
370
    25
100
AcDbLine
 10
2585.0363332237
 20
7283.5786798474
 30
0.0
 11
2585.0411489976
 21
7283.5786798474
 31
0.0
  0
LINE
  5
1E8
330
1F
100
AcDbEntity
  8
0
  6
Continuous
 62
     7
370
    25
100
AcDbLine
 10
2585.0502963739
 20
7283.6047500529
 30
0.0
 11
2585.0551066179
 21
7283.6047500529
 31
0.0
  0
LINE
  5
1E9
330
1F
100
AcDbEntity
  8
0
  6
Continuous
 62
     7
370
    25
100
AcDbLine
 10
2585.0445079682
 20
7282.1885685461
 30
0.0
 11
2585.0493205046
 21
7282.1885685461
 31
0.0
  0
LINE
  5
1EA
330
1F
100
AcDbEntity
  8
0
  6
Continuous
 62
     7
370
    25
100
AcDbLine
 10
2585.0502146076
 20
7282.1855719707
 30
0.0
 11
2585.0550248839
 21
7282.1855719707
 31
0.0
  0
LINE
  5
1EB
330
1F
100
AcDbEntity
  8
0
  6
Continuous
 62
     7
370
    25
100
AcDbLine
 10
2585.032954394
 20
7282.2368134091
 30
0.0
 11
2585.0377715061
 21
7282.2368134091
 31
0.0
  0
LINE
  5
1EC
330
1F
100
AcDbEntity
  8
0
  6
Continuous
 62
     7
370
    25
100
AcDbLine
 10
2585.032954394
 20
7283.5424212858
 30
0.0
 11
2585.0377715061
 21
7283.5424212858
 31
0.0
  0
LINE
  5
1ED
330
1F
100
AcDbEntity
  8
0
  6
Continuous
 62
     7
370
    25
100
AcDbLine
 10
2584.8989711968
 20
7282.9925497104
 30
0.0
 11
2584.9877562334
 21
7283.5846729981
 31
0.0
  0
SPLINE
  5
1EE
330
1F
100
AcDbEntity
  8
0
  6
Continuous
 62
     7
370
    25
100
AcDbSpline
210
0.0
220
0.0
230
1.0
 70
     8
 71
     3
 72
     9
 73
     5
 74
     0
 42
0.00000001
 43
0.00000001
 40
0.0
 40
0.0
 40
0.0
 40
0.0
 40
0.5018528075873676
 40
1.0
 40
1.0
 40
1.0
 40
1.0
 10
2584.98775623345
 20
7283.584672998112
 30
0.0
 10
2584.989485014189
 20
7283.589847461709
 30
0.0
 10
2584.992929810577
 20
7283.600158181345
 30
0.0
 10
2584.997227755632
 20
7283.603223214998
 30
0.0
 10
2584.999368764894
 20
7283.604750052907
 30
0.0
  0
SPLINE
  5
1EF
330
1F
100
AcDbEntity
  8
0
  6
Continuous
 62
     7
370
    25
100
AcDbSpline
210
0.0
220
0.0
230
1.0
 70
     8
 71
     3
 72
     9
 73
     5
 74
     0
 42
0.00000001
 43
0.00000001
 40
0.0
 40
0.0
 40
0.0
 40
0.0
 40
0.4998675798204288
 40
0.9999999999999999
 40
0.9999999999999999
 40
0.9999999999999999
 40
0.9999999999999999
 10
2584.995378183985
 20
7282.185571970715
 30
0.0
 10
2584.993257113651
 20
7282.189960835146
 30
0.0
 10
2584.989013849193
 20
7282.198740889324
 30
0.0
 10
2584.985954460748
 20
7282.21313385562
 30
0.0
 10
2584.984424361402
 20
7282.220332244688
 30
0.0
  0
LINE
  5
1F0
330
1F
100
AcDbEntity
  8
0
  6
Continuous
 62
     7
370
    25
100
AcDbLine
 10
2584.9844243614
 20
7282.2203322447
 30
0.0
 11
2584.8986347052
 21
7282.7986712858
 31
0.0
  0
LINE
  5
1F1
330
1F
100
AcDbEntity
  8
0
  6
Continuous
 62
     7
370
    25
100
AcDbLine
 10
2584.8085504282
 20
7282.1855719707
 30
0.0
 11
2584.8045622301
 21
7282.1885685461
 31
0.0
  0
SPLINE
  5
1F2
330
1F
100
AcDbEntity
  8
0
  6
Continuous
 62
     7
370
    25
100
AcDbSpline
210
0.0
220
0.0
230
1.0
 70
     8
 71
     3
 72
    10
 73
     6
 74
     0
 42
0.00000001
 43
0.00000001
 40
0.0
 40
0.0
 40
0.0
 40
0.0
 40
0.2502840380224827
 40
0.4999128011860501
 40
1.0
 40
1.0
 40
1.0
 40
1.0
 10
2584.804562230079
 20
7282.188568546057
 30
0.0
 10
2584.803506929306
 20
7282.190032959392
 30
0.0
 10
2584.80139909067
 20
7282.192957952044
 30
0.0
 10
2584.798219258008
 20
7282.209476926656
 30
0.0
 10
2584.797200672256
 20
7282.225875186681
 30
0.0
 10
2584.796521239349
 20
7282.236813409071
 30
0.0
  0
SPLINE
  5
1F3
330
1F
100
AcDbEntity
  8
0
  6
Continuous
 62
     7
370
    25
100
AcDbSpline
210
0.0
220
0.0
230
1.0
 70
     8
 71
     3
 72
     9
 73
     5
 74
     0
 42
0.00000001
 43
0.00000001
 40
0.0
 40
0.0
 40
0.0
 40
0.0
 40
0.5000617086092632
 40
1.0
 40
1.0
 40
1.0
 40
1.0
 10
2584.796521239349
 20
7282.236813409071
 30
0.0
 10
2584.79661339159
 20
7282.245912928815
 30
0.0
 10
2584.79679767333
 20
7282.264109722505
 30
0.0
 10
2584.798439599282
 20
7282.280073795867
 30
0.0
 10
2584.799260460936
 20
7282.288054847428
 30
0.0
  0
LINE
  5
1F4
330
1F
100
AcDbEntity
  8
0
  6
Continuous
 62
     7
370
    25
100
AcDbLine
 10
2584.7992604609
 20
7282.2880548474
 30
0.0
 11
2584.8811140605
 21
7282.8951610118
 31
0.0
  0
LINE
  5
1F5
330
1F
100
AcDbEntity
  8
0
  6
Continuous
 62
     7
370
    25
100
AcDbLine
 10
2584.8811140605
 20
7282.8951610118
 30
0.0
 11
2584.7972463372
 21
7283.5190479981
 31
0.0
  0
SPLINE
  5
1F6
330
1F
100
AcDbEntity
  8
0
  6
Continuous
 62
     7
370
    25
100
AcDbSpline
210
0.0
220
0.0
230
1.0
 70
     8
 71
     3
 72
     9
 73
     5
 74
     0
 42
0.00000001
 43
0.00000001
 40
0.0
 40
0.0
 40
0.0
 40
0.0
 40
0.4999399155005524
 40
1.0
 40
1.0
 40
1.0
 40
1.0
 10
2584.797246337155
 20
7283.519047998112
 30
0.0
 10
2584.797039232861
 20
7283.522865939588
 30
0.0
 10
2584.796624974491
 20
7283.530502740246
 30
0.0
 10
2584.7965558205
 20
7283.538448119009
 30
0.0
 10
2584.796521239349
 20
7283.542421285782
 30
0.0
  0
SPLINE
  5
1F7
330
1F
100
AcDbEntity
  8
0
  6
Continuous
 62
     7
370
    25
100
AcDbSpline
210
0.0
220
0.0
230
1.0
 70
     8
 71
     3
 72
     9
 73
     5
 74
     0
 42
0.00000001
 43
0.00000001
 40
0.0
 40
0.0
 40
0.0
 40
0.0
 40
0.5003682129157824
 40
1.0
 40
1.0
 40
1.0
 40
1.0
 10
2584.796521239349
 20
7283.542421285782
 30
0.0
 10
2584.796579207993
 20
7283.549088379486
 30
0.0
 10
2584.796695059964
 20
7283.56241275448
 30
0.0
 10
2584.798144120257
 20
7283.573260145878
 30
0.0
 10
2584.79886811684
 20
7283.578679847426
 30
0.0
  0
SPLINE
  5
1F8
330
1F
100
AcDbEntity
  8
0
  6
Continuous
 62
     7
370
    25
100
AcDbSpline
210
0.0
220
0.0
230
1.0
 70
     8
 71
     3
 72
    11
 73
     7
 74
     0
 42
0.00000001
 43
0.00000001
 40
0.0
 40
0.0
 40
0.0
 40
0.0
 40
0.2502556926832045
 40
0.5000591285672848
 40
0.7497998166586385
 40
1.0
 40
1.0
 40
1.0
 40
1.0
 10
2584.79886811684
 20
7283.578679847426
 30
0.0
 10
2584.799457722799
 20
7283.582614983507
 30
0.0
 10
2584.800635869194
 20
7283.590478144173
 30
0.0
 10
2584.803035736336
 20
7283.598778164592
 30
0.0
 10
2584.805727683298
 20
7283.604188721295
 30
0.0
 10
2584.807647073208
 20
7283.604562827755
 30
0.0
 10
2584.808607650217
 20
7283.604750052907
 30
0.0
  0
LINE
  5
1F9
330
1F
100
AcDbEntity
  8
0
  6
Continuous
 62
     7
370
    25
100
AcDbLine
 10
2584.9829193055
 20
7283.5846729981
 30
0.0
 11
2584.9877562334
 21
7283.5846729981
 31
0.0
  0
LINE
  5
1FA
330
1F
100
AcDbEntity
  8
0
  6
Continuous
 62
     7
370
    25
100
AcDbLine
 10
2584.9945364378
 20
7283.6047500529
 30
0.0
 11
2584.9993687649
 21
7283.6047500529
 31
0.0
  0
LINE
  5
1FB
330
1F
100
AcDbEntity
  8
0
  6
Continuous
 62
     7
370
    25
100
AcDbLine
 10
2584.9795861134
 20
7282.2203322447
 30
0.0
 11
2584.9844243614
 21
7282.2203322447
 31
0.0
  0
LINE
  5
1FC
330
1F
100
AcDbEntity
  8
0
  6
Continuous
 62
     7
370
    25
100
AcDbLine
 10
2584.8940990925
 20
7282.9925497104
 30
0.0
 11
2584.8989711968
 21
7282.9925497104
 31
0.0
  0
LINE
  5
1FD
330
1F
100
AcDbEntity
  8
0
  6
Continuous
 62
     7
370
    25
100
AcDbLine
 10
2584.8937624675
 20
7282.7986712858
 30
0.0
 11
2584.8986347052
 21
7282.7986712858
 31
0.0
  0
LINE
  5
1FE
330
1F
100
AcDbEntity
  8
0
  6
Continuous
 62
     7
370
    25
100
AcDbLine
 10
2584.8762348813
 20
7282.8951610118
 30
0.0
 11
2584.8811140605
 21
7282.8951610118
 31
0.0
  0
LINE
  5
1FF
330
1F
100
AcDbEntity
  8
0
  6
Continuous
 62
     7
370
    25
100
AcDbLine
 10
2584.7943488516
 20
7282.2880548474
 30
0.0
 11
2584.7992604609
 21
7282.2880548474
 31
0.0
  0
LINE
  5
200
330
1F
100
AcDbEntity
  8
0
  6
Continuous
 62
     7
370
    25
100
AcDbLine
 10
2584.7923339298
 20
7283.5190479981
 30
0.0
 11
2584.7972463372
 21
7283.5190479981
 31
0.0
  0
LINE
  5
201
330
1F
100
AcDbEntity
  8
0
  6
Continuous
 62
     7
370
    25
100
AcDbLine
 10
2584.7939563521
 20
7283.5786798474
 30
0.0
 11
2584.7988681168
 21
7283.5786798474
 31
0.0
  0
LINE
  5
202
330
1F
100
AcDbEntity
  8
0
  6
Continuous
 62
     7
370
    25
100
AcDbLine
 10
2584.8036997442
 20
7283.6047500529
 30
0.0
 11
2584.8086076502
 21
7283.6047500529
 31
0.0
  0
LINE
  5
203
330
1F
100
AcDbEntity
  8
0
  6
Continuous
 62
     7
370
    25
100
AcDbLine
 10
2584.7996527213
 20
7282.1885685461
 30
0.0
 11
2584.8045622301
 21
7282.1885685461
 31
0.0
  0
LINE
  5
204
330
1F
100
AcDbEntity
  8
0
  6
Continuous
 62
     7
370
    25
100
AcDbLine
 10
2584.8036424995
 20
7282.1855719707
 30
0.0
 11
2584.8085504282
 21
7282.1855719707
 31
0.0
  0
LINE
  5
205
330
1F
100
AcDbEntity
  8
0
  6
Continuous
 62
     7
370
    25
100
AcDbLine
 10
2584.7916085447
 20
7282.2368134091
 30
0.0
 11
2584.7965212393
 21
7282.2368134091
 31
0.0
  0
LINE
  5
206
330
1F
100
AcDbEntity
  8
0
  6
Continuous
 62
     7
370
    25
100
AcDbLine
 10
2584.7916085447
 20
7283.5424212858
 30
0.0
 11
2584.7965212393
 21
7283.5424212858
 31
0.0
  0
LINE
  5
207
330
1F
100
AcDbEntity
  8
0
  6
Continuous
 62
     7
370
    25
100
AcDbLine
 10
2584.7040982481
 20
7282.9925497104
 30
0.0
 11
2584.7622543965
 21
7283.5846729981
 31
0.0
  0
SPLINE
  5
208
330
1F
100
AcDbEntity
  8
0
  6
Continuous
 62
     7
370
    25
100
AcDbSpline
210
0.0
220
0.0
230
1.0
 70
     8
 71
     3
 72
     9
 73
     5
 74
     0
 42
0.00000001
 43
0.00000001
 40
0.0
 40
0.0
 40
0.0
 40
0.0
 40
0.5018528075877338
 40
1.0
 40
1.0
 40
1.0
 40
1.0
 10
2584.762254396462
 20
7283.584672998112
 30
0.0
 10
2584.763422780538
 20
7283.589847461709
 30
0.0
 10
2584.765750921496
 20
7283.600158181345
 30
0.0
 10
2584.76867079757
 20
7283.603223214998
 30
0.0
 10
2584.770125325638
 20
7283.604750052907
 30
0.0
  0
SPLINE
  5
209
330
1F
100
AcDbEntity
  8
0
  6
Continuous
 62
     7
370
    25
100
AcDbSpline
210
0.0
220
0.0
230
1.0
 70
     8
 71
     3
 72
     9
 73
     5
 74
     0
 42
0.00000001
 43
0.00000001
 40
0.0
 40
0.0
 40
0.0
 40
0.0
 40
0.4998675798204376
 40
1.0
 40
1.0
 40
1.0
 40
1.0
 10
2584.767414433227
 20
7282.185571970715
 30
0.0
 10
2584.765976900027
 20
7282.189960835146
 30
0.0
 10
2584.763101071992
 20
7282.198740889324
 30
0.0
 10
2584.761037985961
 20
7282.21313385562
 30
0.0
 10
2584.760006169753
 20
7282.220332244688
 30
0.0
  0
LINE
  5
20A
330
1F
100
AcDbEntity
  8
0
  6
Continuous
 62
     7
370
    25
100
AcDbLine
 10
2584.7600061698
 20
7282.2203322447
 30
0.0
 11
2584.7038856196
 21
7282.7986712858
 31
0.0
  0
LINE
  5
20B
330
1F
100
AcDbEntity
  8
0
  6
Continuous
 62
     7
370
    25
100
AcDbLine
 10
2584.6497555348
 20
7282.1855719707
 30
0.0
 11
2584.6475117463
 21
7282.1885685461
 31
0.0
  0
SPLINE
  5
20C
330
1F
100
AcDbEntity
  8
0
  6
Continuous
 62
     7
370
    25
100
AcDbSpline
210
0.0
220
0.0
230
1.0
 70
     8
 71
     3
 72
    10
 73
     6
 74
     0
 42
0.00000001
 43
0.00000001
 40
0.0
 40
0.0
 40
0.0
 40
0.0
 40
0.2502840380224724
 40
0.4999128011860317
 40
1.0
 40
1.0
 40
1.0
 40
1.0
 10
2584.647511746347
 20
7282.188568546057
 30
0.0
 10
2584.646921106747
 20
7282.190032959392
 30
0.0
 10
2584.645741373914
 20
7282.192957952044
 30
0.0
 10
2584.643974208832
 20
7282.209476926656
 30
0.0
 10
2584.643411214712
 20
7282.225875186681
 30
0.0
 10
2584.64303567762
 20
7282.236813409071
 30
0.0
  0
SPLINE
  5
20D
330
1F
100
AcDbEntity
  8
0
  6
Continuous
 62
     7
370
    25
100
AcDbSpline
210
0.0
220
0.0
230
1.0
 70
     8
 71
     3
 72
     9
 73
     5
 74
     0
 42
0.00000001
 43
0.00000001
 40
0.0
 40
0.0
 40
0.0
 40
0.0
 40
0.5000617086092588
 40
1.0
 40
1.0
 40
1.0
 40
1.0
 10
2584.64303567762
 20
7282.236813409071
 30
0.0
 10
2584.643086383005
 20
7282.245912928815
 30
0.0
 10
2584.643187781261
 20
7282.264109722505
 30
0.0
 10
2584.644098065402
 20
7282.280073795867
 30
0.0
 10
2584.644553151301
 20
7282.288054847428
 30
0.0
  0
LINE
  5
20E
330
1F
100
AcDbEntity
  8
0
  6
Continuous
 62
     7
370
    25
100
AcDbLine
 10
2584.6445531513
 20
7282.2880548474
 30
0.0
 11
2584.6929088017
 21
7282.8951610118
 31
0.0
  0
LINE
  5
20F
330
1F
100
AcDbEntity
  8
0
  6
Continuous
 62
     7
370
    25
100
AcDbLine
 10
2584.6929088017
 20
7282.8951610118
 30
0.0
 11
2584.6434366179
 21
7283.5190479981
 31
0.0
  0
SPLINE
  5
210
330
1F
100
AcDbEntity
  8
0
  6
Continuous
 62
     7
370
    25
100
AcDbSpline
210
0.0
220
0.0
230
1.0
 70
     8
 71
     3
 72
     9
 73
     5
 74
     0
 42
0.00000001
 43
0.00000001
 40
0.0
 40
0.0
 40
0.0
 40
0.0
 40
0.499939915500579
 40
1.0
 40
1.0
 40
1.0
 40
1.0
 10
2584.643436617925
 20
7283.519047998112
 30
0.0
 10
2584.643322074095
 20
7283.522865939588
 30
0.0
 10
2584.643092958903
 20
7283.530502740246
 30
0.0
 10
2584.643054772911
 20
7283.538448119009
 30
0.0
 10
2584.64303567762
 20
7283.542421285782
 30
0.0
  0
SPLINE
  5
211
330
1F
100
AcDbEntity
  8
0
  6
Continuous
 62
     7
370
    25
100
AcDbSpline
210
0.0
220
0.0
230
1.0
 70
     8
 71
     3
 72
     9
 73
     5
 74
     0
 42
0.00000001
 43
0.00000001
 40
0.0
 40
0.0
 40
0.0
 40
0.0
 40
0.5003682129158804
 40
0.9999999999999999
 40
0.9999999999999999
 40
0.9999999999999999
 40
0.9999999999999999
 10
2584.64303567762
 20
7283.542421285782
 30
0.0
 10
2584.643067539475
 20
7283.549088379486
 30
0.0
 10
2584.643131216292
 20
7283.56241275448
 30
0.0
 10
2584.643934155763
 20
7283.573260145878
 30
0.0
 10
2584.644335329847
 20
7283.578679847426
 30
0.0
  0
SPLINE
  5
212
330
1F
100
AcDbEntity
  8
0
  6
Continuous
 62
     7
370
    25
100
AcDbSpline
210
0.0
220
0.0
230
1.0
 70
     8
 71
     3
 72
    11
 73
     7
 74
     0
 42
0.00000001
 43
0.00000001
 40
0.0
 40
0.0
 40
0.0
 40
0.0
 40
0.25025569268308
 40
0.5000591285672921
 40
0.7497998166587738
 40
1.0
 40
1.0
 40
1.0
 40
1.0
 10
2584.644335329847
 20
7283.578679847426
 30
0.0
 10
2584.644662790447
 20
7283.582614983507
 30
0.0
 10
2584.645317119866
 20
7283.590478144173
 30
0.0
 10
2584.64665605563
 20
7283.598778164592
 30
0.0
 10
2584.648164200791
 20
7283.604188721295
 30
0.0
 10
2584.649246295307
 20
7283.604562827755
 30
0.0
 10
2584.649787839841
 20
7283.604750052907
 30
0.0
  0
LINE
  5
213
330
1F
100
AcDbEntity
  8
0
  6
Continuous
 62
     7
370
    25
100
AcDbLine
 10
2584.7573281254
 20
7283.5846729981
 30
0.0
 11
2584.7622543965
 21
7283.5846729981
 31
0.0
  0
LINE
  5
214
330
1F
100
AcDbEntity
  8
0
  6
Continuous
 62
     7
370
    25
100
AcDbLine
 10
2584.7652021731
 20
7283.6047500529
 30
0.0
 11
2584.7701253256
 21
7283.6047500529
 31
0.0
  0
LINE
  5
215
330
1F
100
AcDbEntity
  8
0
  6
Continuous
 62
     7
370
    25
100
AcDbLine
 10
2584.755079008
 20
7282.2203322447
 30
0.0
 11
2584.7600061698
 21
7282.2203322447
 31
0.0
  0
LINE
  5
216
330
1F
100
AcDbEntity
  8
0
  6
Continuous
 62
     7
370
    25
100
AcDbLine
 10
2584.6991489358
 20
7282.9925497104
 30
0.0
 11
2584.7040982481
 21
7282.9925497104
 31
0.0
  0
LINE
  5
217
330
1F
100
AcDbEntity
  8
0
  6
Continuous
 62
     7
370
    25
100
AcDbLine
 10
2584.698936223
 20
7282.7986712858
 30
0.0
 11
2584.7038856196
 21
7282.7986712858
 31
0.0
  0
LINE
  5
218
330
1F
100
AcDbEntity
  8
0
  6
Continuous
 62
     7
370
    25
100
AcDbLine
 10
2584.6384632717
 20
7283.5190479981
 30
0.0
 11
2584.6434366179
 21
7283.5190479981
 31
0.0
  0
LINE
  5
219
330
1F
100
AcDbEntity
  8
0
  6
Continuous
 62
     7
370
    25
100
AcDbLine
 10
2584.6879550562
 20
7282.8951610118
 30
0.0
 11
2584.6929088017
 21
7282.8951610118
 31
0.0
  0
LINE
  5
21A
330
1F
100
AcDbEntity
  8
0
  6
Continuous
 62
     7
370
    25
100
AcDbLine
 10
2584.6395802475
 20
7282.2880548474
 30
0.0
 11
2584.6445531513
 21
7282.2880548474
 31
0.0
  0
LINE
  5
21B
330
1F
100
AcDbEntity
  8
0
  6
Continuous
 62
     7
370
    25
100
AcDbLine
 10
2584.6393623397
 20
7283.5786798474
 30
0.0
 11
2584.6443353298
 21
7283.5786798474
 31
0.0
  0
LINE
  5
21C
330
1F
100
AcDbEntity
  8
0
  6
Continuous
 62
     7
370
    25
100
AcDbLine
 10
2584.64481701
 20
7283.6047500529
 30
0.0
 11
2584.6497878398
 21
7283.6047500529
 31
0.0
  0
LINE
  5
21D
330
1F
100
AcDbEntity
  8
0
  6
Continuous
 62
     7
370
    25
100
AcDbLine
 10
2584.6425400147
 20
7282.1885685461
 30
0.0
 11
2584.6475117463
 21
7282.1885685461
 31
0.0
  0
LINE
  5
21E
330
1F
100
AcDbEntity
  8
0
  6
Continuous
 62
     7
370
    25
100
AcDbLine
 10
2584.6447846921
 20
7282.1855719707
 30
0.0
 11
2584.6497555348
 21
7282.1855719707
 31
0.0
  0
LINE
  5
21F
330
1F
100
AcDbEntity
  8
0
  6
Continuous
 62
     7
370
    25
100
AcDbLine
 10
2584.6380621726
 20
7282.2368134091
 30
0.0
 11
2584.6430356776
 21
7282.2368134091
 31
0.0
  0
LINE
  5
220
330
1F
100
AcDbEntity
  8
0
  6
Continuous
 62
     7
370
    25
100
AcDbLine
 10
2584.6380621726
 20
7283.5424212858
 30
0.0
 11
2584.6430356776
 21
7283.5424212858
 31
0.0
  0
LINE
  5
221
330
1F
100
AcDbEntity
  8
0
  6
Continuous
 62
     7
370
    25
100
AcDbLine
 10
2584.5976441746
 20
7282.9925497104
 30
0.0
 11
2584.6247598053
 21
7283.5846729981
 31
0.0
  0
SPLINE
  5
222
330
1F
100
AcDbEntity
  8
0
  6
Continuous
 62
     7
370
    25
100
AcDbSpline
210
0.0
220
0.0
230
1.0
 70
     8
 71
     3
 72
     9
 73
     5
 74
     0
 42
0.00000001
 43
0.00000001
 40
0.0
 40
0.0
 40
0.0
 40
0.0
 40
0.5018528075876526
 40
0.9999999999999999
 40
0.9999999999999999
 40
0.9999999999999999
 40
0.9999999999999999
 10
2584.624759805303
 20
7283.584672998112
 30
0.0
 10
2584.62535952289
 20
7283.589847461709
 30
0.0
 10
2584.626554529829
 20
7283.600158181345
 30
0.0
 10
2584.628075670028
 20
7283.603223214998
 30
0.0
 10
2584.628833421747
 20
7283.604750052907
 30
0.0
  0
SPLINE
  5
223
330
1F
100
AcDbEntity
  8
0
  6
Continuous
 62
     7
370
    25
100
AcDbSpline
210
0.0
220
0.0
230
1.0
 70
     8
 71
     3
 72
     9
 73
     5
 74
     0
 42
0.00000001
 43
0.00000001
 40
0.0
 40
0.0
 40
0.0
 40
0.0
 40
0.499867579820701
 40
1.0
 40
1.0
 40
1.0
 40
1.0
 10
2584.62742140554
 20
7282.185571970715
 30
0.0
 10
2584.62667758434
 20
7282.189960835146
 30
0.0
 10
2584.625189547848
 20
7282.198740889324
 30
0.0
 10
2584.624137366763
 20
7282.21313385562
 30
0.0
 10
2584.62361113689
 20
7282.220332244688
 30
0.0
  0
LINE
  5
224
330
1F
100
AcDbEntity
  8
0
  6
Continuous
 62
     7
370
    25
100
AcDbLine
 10
2584.6236111369
 20
7282.2203322447
 30
0.0
 11
2584.5975569142
 21
7282.7986712858
 31
0.0
  0
LINE
  5
225
330
1F
100
AcDbEntity
  8
0
  6
Continuous
 62
     7
370
    25
100
AcDbLine
 10
2584.5786861773
 20
7282.2880548474
 30
0.0
 11
2584.5932016171
 21
7282.8951610118
 31
0.0
  0
LINE
  5
226
330
1F
100
AcDbEntity
  8
0
  6
Continuous
 62
     7
370
    25
100
AcDbLine
 10
2584.5932016171
 20
7282.8951610118
 30
0.0
 11
2584.5807795073
 21
7283.4214234128
 31
0.0
  0
LINE
  5
227
330
1F
100
AcDbEntity
  8
0
  6
Continuous
 62
     7
370
    25
100
AcDbLine
 10
2584.6197790594
 20
7283.5846729981
 30
0.0
 11
2584.6247598053
 21
7283.5846729981
 31
0.0
  0
LINE
  5
228
330
1F
100
AcDbEntity
  8
0
  6
Continuous
 62
     7
370
    25
100
AcDbLine
 10
2584.6238542898
 20
7283.6047500529
 30
0.0
 11
2584.6288334217
 21
7283.6047500529
 31
0.0
  0
LINE
  5
229
330
1F
100
AcDbEntity
  8
0
  6
Continuous
 62
     7
370
    25
100
AcDbLine
 10
2584.6186299359
 20
7282.2203322447
 30
0.0
 11
2584.6236111369
 21
7282.2203322447
 31
0.0
  0
LINE
  5
22A
330
1F
100
AcDbEntity
  8
0
  6
Continuous
 62
     7
370
    25
100
AcDbLine
 10
2584.5736871772
 20
7282.2880548474
 30
0.0
 11
2584.5786861773
 21
7282.2880548474
 31
0.0
  0
LINE
  5
22B
330
1F
100
AcDbEntity
  8
0
  6
Continuous
 62
     7
370
    25
100
AcDbLine
 10
2584.5734760535
 20
7283.5190479981
 30
0.0
 11
2584.5784751372
 21
7283.5190479981
 31
0.0
  0
LINE
  5
22C
330
1F
100
AcDbEntity
  8
0
  6
Continuous
 62
     7
370
    25
100
AcDbLine
 10
2584.5736454036
 20
7283.5786798474
 30
0.0
 11
2584.5786444203
 21
7283.5786798474
 31
0.0
  0
LINE
  5
22D
330
1F
100
AcDbEntity
  8
0
  6
Continuous
 62
     7
370
    25
100
AcDbLine
 10
2584.5747727438
 20
7283.6047500529
 30
0.0
 11
2584.579771314
 21
7283.6047500529
 31
0.0
  0
LINE
  5
22E
330
1F
100
AcDbEntity
  8
0
  6
Continuous
 62
     7
370
    25
100
AcDbLine
 10
2584.5742818928
 20
7282.1885685461
 30
0.0
 11
2584.5792806573
 21
7282.1885685461
 31
0.0
  0
LINE
  5
22F
330
1F
100
AcDbEntity
  8
0
  6
Continuous
 62
     7
370
    25
100
AcDbLine
 10
2584.5747655816
 20
7282.1855719707
 30
0.0
 11
2584.5797641546
 21
7282.1855719707
 31
0.0
  0
LINE
  5
230
330
1F
100
AcDbEntity
  8
0
  6
Continuous
 62
     7
370
    25
100
AcDbLine
 10
2584.5734020792
 20
7282.2368134091
 30
0.0
 11
2584.5784011922
 21
7282.2368134091
 31
0.0
  0
LINE
  5
231
330
1F
100
AcDbEntity
  8
0
  6
Continuous
 62
     7
370
    25
100
AcDbLine
 10
2584.5734020792
 20
7283.5424212858
 30
0.0
 11
2584.5784011922
 21
7283.5424212858
 31
0.0
  0
LINE
  5
232
330
1F
100
AcDbEntity
  8
0
  6
Continuous
 62
     7
370
    25
100
AcDbLine
 10
2584.8211624326
 20
7343.5663938885
 30
0.0
 11
2584.8211624326
 21
7344.5663938885
 31
0.0
  0
SPLINE
  5
233
330
1F
100
AcDbEntity
  8
0
  6
Continuous
 62
     7
370
    25
100
AcDbSpline
210
0.0
220
0.0
230
1.0
 70
     8
 71
     3
 72
    13
 73
     9
 74
     0
 42
0.00000001
 43
0.00000001
 40
0.0
 40
0.0
 40
0.0
 40
0.0
 40
0.0815925620046585
 40
0.3062098700124155
 40
0.5377395130945991
 40
0.7904922446264109
 40
0.9197656435025366
 40
1.0
 40
1.0
 40
1.0
 40
1.0
 10
2609.546273190272
 20
7299.204128824693
 30
0.0
 10
2609.554958600992
 20
7299.22245908703
 30
0.0
 10
2609.58755420067
 20
7299.291250985576
 30
0.0
 10
2609.376996170416
 20
7298.848688591105
 30
0.0
 10
2608.985029936196
 20
7297.938469101128
 30
0.0
 10
2608.591490284199
 20
7296.75779775931
 30
0.0
 10
2608.350839394757
 20
7295.736548624143
 30
0.0
 10
2608.290202704296
 20
7295.230505173363
 30
0.0
 10
2608.266980910761
 20
7295.036707714358
 30
0.0
  0
SPLINE
  5
234
330
1F
100
AcDbEntity
  8
0
  6
Continuous
 62
     7
370
    25
100
AcDbSpline
210
0.0
220
0.0
230
1.0
 70
     8
 71
     3
 72
    12
 73
     8
 74
     0
 42
0.00000001
 43
0.00000001
 40
0.0
 40
0.0
 40
0.0
 40
0.0
 40
0.1318818454181329
 40
0.5054194082570866
 40
0.6891342568643825
 40
0.8792693531189799
 40
1.0
 40
1.0
 40
1.0
 40
1.0
 10
2608.713313721934
 20
7290.499811951225
 30
0.0
 10
2608.766120761082
 20
7290.313786993634
 30
0.0
 10
2608.968496625579
 20
7289.600871400979
 30
0.0
 10
2609.269482528679
 20
7288.948088057793
 30
0.0
 10
2609.480450968997
 20
7288.473110487181
 30
0.0
 10
2609.565771469946
 20
7288.295728333734
 30
0.0
 10
2609.574405116029
 20
7288.277494953082
 30
0.0
 10
2609.577758157332
 20
7288.270413671567
 30
0.0
  0
LINE
  5
235
330
1F
100
AcDbEntity
  8
0
  6
Continuous
 62
     7
370
    25
100
AcDbLine
 10
2584.7461624326
 20
7346.6663938885
 30
0.0
 11
2609.6461624326
 21
7346.6663938885
 31
0.0
  0
LINE
  5
236
330
1F
100
AcDbEntity
  8
0
  6
Continuous
 62
     7
370
    25
100
AcDbLine
 10
2584.7461624326
 20
7345.8163938885
 30
0.0
 11
2609.6461624326
 21
7345.8163938885
 31
0.0
  0
LINE
  5
237
330
1F
100
AcDbEntity
  8
0
  6
Continuous
 62
     7
370
    25
100
AcDbLine
 10
2584.8961624326
 20
7345.6663938885
 30
0.0
 11
2609.4961624326
 21
7345.6663938885
 31
0.0
  0
LINE
  5
238
330
1F
100
AcDbEntity
  8
0
  6
Continuous
 62
     7
370
    25
100
AcDbLine
 10
2585.2461624326
 20
7347.1663938885
 30
0.0
 11
2609.1461624326
 21
7347.1663938885
 31
0.0
  0
LINE
  5
239
330
1F
100
AcDbEntity
  8
0
  6
Continuous
 62
     7
370
    25
100
AcDbLine
 10
2641.6961624326
 20
7328.2913938885
 30
0.0
 11
2641.6961624326
 21
7332.8913938885
 31
0.0
  0
LINE
  5
23A
330
1F
100
AcDbEntity
  8
0
  6
Continuous
 62
     7
370
    25
100
AcDbLine
 10
2641.6961624326
 20
7328.2913938885
 30
0.0
 11
2632.3461624326
 21
7318.9413938885
 31
0.0
  0
LINE
  5
23B
330
1F
100
AcDbEntity
  8
0
  6
Continuous
 62
     7
370
    25
100
AcDbLine
 10
2642.1961624326
 20
7328.7913938885
 30
0.0
 11
2642.1961624326
 21
7332.3913938885
 31
0.0
  0
LINE
  5
23C
330
1F
100
AcDbEntity
  8
0
  6
Continuous
 62
     7
370
    25
100
AcDbLine
 10
2642.1961624326
 20
7328.7913938885
 30
0.0
 11
2641.6961624326
 21
7328.2913938885
 31
0.0
  0
LINE
  5
23D
330
1F
100
AcDbEntity
  8
0
  6
Continuous
 62
     7
370
    25
100
AcDbLine
 10
2609.5711624326
 20
7345.5663938885
 30
0.0
 11
2584.8211624326
 21
7345.5663938885
 31
0.0
  0
LINE
  5
23E
330
1F
100
AcDbEntity
  8
0
  6
Continuous
 62
     7
370
    25
100
AcDbLine
 10
2584.8211624326
 20
7279.2663938885
 30
0.0
 11
2609.5711624326
 21
7279.2663938885
 31
0.0
  0
SPLINE
  5
23F
330
1F
100
AcDbEntity
  8
0
  6
Continuous
 62
     7
370
    25
100
AcDbSpline
210
0.0
220
0.0
230
1.0
 70
     8
 71
     3
 72
    19
 73
    15
 74
     0
 42
0.00000001
 43
0.00000001
 40
0.0
 40
0.0
 40
0.0
 40
0.0
 40
0.1095111136530684
 40
0.2188085637225372
 40
0.3337218008868093
 40
0.3937649660886534
 40
0.4557319309146864
 40
0.5124776762065326
 40
0.5712121483837727
 40
0.6758631400627204
 40
0.7829545959137224
 40
0.9005761109068394
 40
0.9603512658028911
 40
1.0
 40
1.0
 40
1.0
 40
1.0
 10
2609.571162432616
 20
7288.141393888522
 30
0.0
 10
2609.545949440234
 20
7288.196768774245
 30
0.0
 10
2609.495572647722
 20
7288.30741050555
 30
0.0
 10
2609.137034936541
 20
7289.161796184593
 30
0.0
 10
2608.772297310881
 20
7290.230327902135
 30
0.0
 10
2608.506657289816
 20
7291.309020652443
 30
0.0
 10
2608.353365082542
 20
7292.201288768038
 30
0.0
 10
2608.269064198871
 20
7293.137619450124
 30
0.0
 10
2608.261560958129
 20
7294.322946988761
 30
0.0
 10
2608.427665984828
 20
7295.752184428732
 30
0.0
 10
2608.813775553067
 20
7297.260715916545
 30
0.0
 10
2609.172953639821
 20
7298.246323625696
 30
0.0
 10
2609.393768911277
 20
7298.78441020446
 30
0.0
 10
2609.453618184379
 20
7298.921979395221
 30
0.0
 10
2609.477485163862
 20
7298.976839895327
 30
0.0
  0
SPLINE
  5
240
330
1F
100
AcDbEntity
  8
0
  6
Continuous
 62
     7
370
    25
100
AcDbSpline
210
0.0
220
0.0
230
1.0
 70
     8
 71
     3
 72
    26
 73
    22
 74
     0
 42
0.00000001
 43
0.00000001
 40
0.0
 40
0.0
 40
0.0
 40
0.0
 40
0.0475448847484225
 40
0.0965881775284169
 40
0.1441056613867713
 40
0.1928358838377171
 40
0.2438102838868683
 40
0.2959960045415728
 40
0.352118039872346
 40
0.4100669855322546
 40
0.4540372416434328
 40
0.499248888153166
 40
0.5432404325530085
 40
0.5885272152312346
 40
0.6774133088574172
 40
0.7284118715568247
 40
0.7806096045473632
 40
0.8369145499420058
 40
0.8950863273822974
 40
0.9473095639211782
 40
1.0
 40
1.0
 40
1.0
 40
1.0
 10
2609.571162432616
 20
7318.916393888522
 30
0.0
 10
2609.562166379593
 20
7318.932235772596
 30
0.0
 10
2609.543890757071
 20
7318.964418808046
 30
0.0
 10
2609.400297427156
 20
7319.221217142705
 30
0.0
 10
2609.184525273713
 20
7319.621018643984
 30
0.0
 10
2608.904367084845
 20
7320.168541944355
 30
0.0
 10
2608.576129507337
 20
7320.864561350241
 30
0.0
 10
2608.218347867328
 20
7321.721848650202
 30
0.0
 10
2607.866203485633
 20
7322.741139775884
 30
0.0
 10
2607.595958121121
 20
7323.819121733581
 30
0.0
 10
2607.436882122044
 20
7324.888541864812
 30
0.0
 10
2607.384451426207
 20
7325.887350220391
 30
0.0
 10
2607.432109884008
 20
7326.89661761763
 30
0.0
 10
2607.618838077582
 20
7328.194467407384
 30
0.0
 10
2607.969623930474
 20
7329.439014900928
 30
0.0
 10
2608.393412751229
 20
7330.545547651676
 30
0.0
 10
2608.749215395417
 20
7331.345838650419
 30
0.0
 10
2609.091049109682
 20
7332.035203383612
 30
0.0
 10
2609.361346662569
 20
7332.541270684395
 30
0.0
 10
2609.538477437081
 20
7332.85890198067
 30
0.0
 10
2609.55918388091
 20
7332.89530577392
 30
0.0
 10
2609.569583207591
 20
7332.913588726879
 30
0.0
  0
ARC
  5
241
330
1F
100
AcDbEntity
  8
0
  6
Continuous
 62
     7
370
    25
100
AcDbCircle
 10
2572.4552263637
 20
7344.0664112796
 30
0.0
 40
12.38171951397846
100
AcDbArc
 50
357.1420728553
 51
2.8933048532
  0
LINE
  5
242
330
1F
100
AcDbEntity
  8
0
  6
Continuous
 62
     7
370
    25
100
AcDbLine
 10
2612.1961624326
 20
7278.1965573553
 30
0.0
 11
2582.1961624326
 21
7278.1965573553
 31
0.0
  0
LINE
  5
243
330
1F
100
AcDbEntity
  8
0
  6
Continuous
 62
     7
370
    25
100
AcDbLine
 10
2582.4376438892
 20
7278.6148155072
 30
0.0
 11
2611.954680976
 21
7278.6148155072
 31
0.0
  0
LINE
  5
244
330
1F
100
AcDbEntity
  8
0
  6
Continuous
 62
     7
370
    25
100
AcDbLine
 10
2596.6247268662
 20
7277.1663938885
 30
0.0
 11
2582.1961624326
 21
7277.1663938885
 31
0.0
  0
LINE
  5
245
330
1F
100
AcDbEntity
  8
0
  6
Continuous
 62
     7
370
    25
100
AcDbLine
 10
2612.1961624326
 20
7277.1663938885
 30
0.0
 11
2596.6247268662
 21
7277.1663938885
 31
0.0
  0
LINE
  5
246
330
1F
100
AcDbEntity
  8
0
  6
Continuous
 62
     7
370
    25
100
AcDbLine
 10
2596.7123469864
 20
7279.1663938885
 30
0.0
 11
2584.4961624326
 21
7279.1663938885
 31
0.0
  0
LINE
  5
247
330
1F
100
AcDbEntity
  8
0
  6
Continuous
 62
     7
370
    25
100
AcDbLine
 10
2609.8961624326
 20
7279.1663938885
 30
0.0
 11
2596.7123469864
 21
7279.1663938885
 31
0.0
  0
LINE
  5
248
330
1F
100
AcDbEntity
  8
0
  6
Continuous
 62
     7
370
    25
100
AcDbLine
 10
2515.2013397855
 20
7184.9693169838
 30
0.0
 11
2515.4513397855
 21
7185.2193169838
 31
0.0
  0
LINE
  5
249
330
1F
100
AcDbEntity
  8
0
  6
Continuous
 62
     7
370
    25
100
AcDbLine
 10
2515.4513397855
 20
7192.6193169838
 30
0.0
 11
2515.2013397855
 21
7192.8693169838
 31
0.0
  0
LINE
  5
24A
330
1F
100
AcDbEntity
  8
0
  6
Continuous
 62
     7
370
    25
100
AcDbLine
 10
2515.2013397855
 20
7192.8693169838
 30
0.0
 11
2508.0563225808
 21
7192.8693169838
 31
0.0
  0
LINE
  5
24B
330
1F
100
AcDbEntity
  8
0
  6
Continuous
 62
     7
370
    25
100
AcDbLine
 10
2508.0563225808
 20
7184.9693169838
 30
0.0
 11
2515.2013397855
 21
7184.9693169838
 31
0.0
  0
LINE
  5
24C
330
1F
100
AcDbEntity
  8
0
  6
Continuous
 62
     7
370
    25
100
AcDbLine
 10
2513.9513397855
 20
7188.9926206737
 30
0.0
 11
2513.9513397855
 21
7189.1364443689
 31
0.0
  0
LINE
  5
24D
330
1F
100
AcDbEntity
  8
0
  6
Continuous
 62
     7
370
    25
100
AcDbLine
 10
2511.9513397855
 20
7189.1364443689
 30
0.0
 11
2511.9513397855
 21
7188.9926206737
 31
0.0
  0
LINE
  5
24E
330
1F
100
AcDbEntity
  8
0
  6
Continuous
 62
     7
370
    25
100
AcDbLine
 10
2496.7600805295
 20
7201.2837813206
 30
0.0
 11
2496.7495448663
 21
7201.2943169838
 31
0.0
  0
LINE
  5
24F
330
1F
100
AcDbEntity
  8
0
  6
Continuous
 62
     7
370
    25
100
AcDbLine
 10
2489.2745448663
 20
7178.6066124404
 30
0.0
 11
2489.2745448663
 21
7146.7943169838
 31
0.0
  0
LINE
  5
250
330
1F
100
AcDbEntity
  8
0
  6
Continuous
 62
     7
370
    25
100
AcDbLine
 10
2503.2245448663
 20
7146.7943169838
 30
0.0
 11
2503.2245448663
 21
7178.6066124404
 31
0.0
  0
LINE
  5
251
330
1F
100
AcDbEntity
  8
0
  6
Continuous
 62
     7
370
    25
100
AcDbLine
 10
2515.4513397855
 20
7192.6186797973
 30
0.0
 11
2515.4513397855
 21
7185.2193169838
 31
0.0
  0
LINE
  5
252
330
1F
100
AcDbEntity
  8
0
  6
Continuous
 62
     7
370
    25
100
AcDbLine
 10
2515.2013397855
 20
7192.8686367441
 30
0.0
 11
2515.2013397855
 21
7184.9693169838
 31
0.0
  0
SPLINE
  5
253
330
1F
100
AcDbEntity
  8
0
  6
Continuous
 62
     7
370
    25
100
AcDbSpline
210
0.0
220
0.0
230
1.0
 70
     8
 71
     3
 72
    12
 73
     8
 74
     0
 42
0.00000001
 43
0.00000001
 40
0.0
 40
0.0
 40
0.0
 40
0.0
 40
0.2100195538040857
 40
0.4198732221364434
 40
0.6340028037614991
 40
0.8511384820291519
 40
1.0
 40
1.0
 40
1.0
 40
1.0
 10
2512.951339785543
 20
7187.990404888855
 30
0.0
 10
2513.061706306284
 20
7188.001149607061
 30
0.0
 10
2513.282352173967
 20
7188.022630556678
 30
0.0
 10
2513.578356077468
 20
7188.189518832714
 30
0.0
 10
2513.804346507657
 20
7188.437948782857
 30
0.0
 10
2513.93725762067
 20
7188.721869319106
 30
0.0
 10
2513.938909087873
 20
7188.914858896661
 30
0.0
 10
2513.939580786775
 20
7188.993353272473
 30
0.0
  0
SPLINE
  5
254
330
1F
100
AcDbEntity
  8
0
  6
Continuous
 62
     7
370
    25
100
AcDbSpline
210
0.0
220
0.0
230
1.0
 70
     8
 71
     3
 72
    12
 73
     8
 74
     0
 42
0.00000001
 43
0.00000001
 40
0.0
 40
0.0
 40
0.0
 40
0.0
 40
0.1844702661525069
 40
0.3924850698339944
 40
0.6056219363945279
 40
0.8227568632242045
 40
0.9999999999999999
 40
0.9999999999999999
 40
0.9999999999999999
 40
0.9999999999999999
 10
2511.956962517323
 20
7188.993305392778
 30
0.0
 10
2511.962892672577
 20
7188.896076153003
 30
0.0
 10
2511.975509868007
 20
7188.689207990677
 30
0.0
 10
2512.124379836453
 20
7188.400012231825
 30
0.0
 10
2512.360170178204
 20
7188.161957101931
 30
0.0
 10
2512.651288632771
 20
7188.015223299654
 30
0.0
 10
2512.858302635284
 20
7187.998100357422
 30
0.0
 10
2512.951339785543
 20
7187.990404888855
 30
0.0
  0
CIRCLE
  5
255
330
1F
100
AcDbEntity
  8
0
  6
Continuous
 62
     7
370
    25
100
AcDbCircle
 10
2512.9512243117
 20
7189.136330401
 30
0.0
 40
0.9999131920231046
  0
LINE
  5
256
330
1F
100
AcDbEntity
  8
0
  6
Continuous
 62
     7
370
    25
100
AcDbLine
 10
2490.8303998095
 20
7200.3221013742
 30
0.0
 11
2490.884054711
 21
7200.2092025188
 31
0.0
  0
LINE
  5
257
330
1F
100
AcDbEntity
  8
0
  6
Continuous
 62
     7
370
    25
100
AcDbLine
 10
2501.6150350216
 20
7200.2092025188
 30
0.0
 11
2501.6686899231
 21
7200.3221013742
 31
0.0
  0
ARC
  5
258
330
1F
100
AcDbEntity
  8
0
  6
Continuous
 62
     7
370
    25
100
AcDbCircle
 10
2496.2495448663
 20
7188.9193169838
 30
0.0
 40
12.50000000000082
100
AcDbArc
 50
64.5807116611
 51
115.4192883389
  0
ARC
  5
259
330
1F
100
AcDbEntity
  8
0
  6
Continuous
 62
     7
370
    25
100
AcDbCircle
 10
2496.2495448663
 20
7188.9193169838
 30
0.0
 40
12.62499999999999
100
AcDbArc
 50
64.5807116611
 51
115.4192883389
  0
LINE
  5
25A
330
1F
100
AcDbEntity
  8
0
  6
Continuous
 62
     7
370
    25
100
AcDbLine
 10
2494.0026993158
 20
7201.3427750399
 30
0.0
 11
2494.0035891556
 21
7201.3378548585
 31
0.0
  0
LINE
  5
25B
330
1F
100
AcDbEntity
  8
0
  6
Continuous
 62
     7
370
    25
100
AcDbLine
 10
2493.8967457943
 20
7201.3231454866
 30
0.0
 11
2493.8976775959
 21
7201.3182330793
 31
0.0
  0
LINE
  5
25C
330
1F
100
AcDbEntity
  8
0
  6
Continuous
 62
     7
370
    25
100
AcDbLine
 10
2493.9005732099
 20
7201.3238708717
 30
0.0
 11
2493.9015034957
 21
7201.3189581771
 31
0.0
  0
LINE
  5
25D
330
1F
100
AcDbEntity
  8
0
  6
Continuous
 62
     7
370
    25
100
AcDbLine
 10
2495.5937100523
 20
7201.5272710485
 30
0.0
 11
2495.5939697889
 21
7201.5222777994
 31
0.0
  0
LINE
  5
25E
330
1F
100
AcDbEntity
  8
0
  6
Continuous
 62
     7
370
    25
100
AcDbLine
 10
2494.5362517715
 20
7201.4275243602
 30
0.0
 11
2494.5369303035
 21
7201.4225706147
 31
0.0
  0
SPLINE
  5
25F
330
1F
100
AcDbEntity
  8
0
  6
Continuous
 62
     7
370
    25
100
AcDbSpline
210
0.0
220
0.0
230
1.0
 70
     8
 71
     3
 72
    12
 73
     8
 74
     0
 42
0.00000001
 43
0.00000001
 40
0.0
 40
0.0
 40
0.0
 40
0.0
 40
0.1253815082149875
 40
0.2506859940730878
 40
0.5008455041432164
 40
0.7508581249193542
 40
1.0
 40
1.0
 40
1.0
 40
1.0
 10
2497.911165431479
 20
7201.434493454707
 30
0.0
 10
2497.916139660896
 20
7201.433831629282
 30
0.0
 10
2497.926085064042
 20
7201.432508384995
 30
0.0
 10
2497.955053677175
 20
7201.428606529362
 30
0.0
 10
2498.002015046316
 20
7201.422140446958
 30
0.0
 10
2498.070084064513
 20
7201.4124691365
 30
0.0
 10
2498.124362728634
 20
7201.404309619995
 30
0.0
 10
2498.151454717723
 20
7201.40023697864
 30
0.0
  0
LINE
  5
260
330
1F
100
AcDbEntity
  8
0
  6
Continuous
 62
     7
370
    25
100
AcDbLine
 10
2497.9105073639
 20
7201.4295369492
 30
0.0
 11
2497.9111654315
 21
7201.4344934547
 31
0.0
  0
SPLINE
  5
261
330
1F
100
AcDbEntity
  8
0
  6
Continuous
 62
     7
370
    25
100
AcDbSpline
210
0.0
220
0.0
230
1.0
 70
     8
 71
     3
 72
    12
 73
     8
 74
     0
 42
0.00000001
 43
0.00000001
 40
0.0
 40
0.0
 40
0.0
 40
0.0
 40
0.125381508214972
 40
0.2506859940730946
 40
0.5008455041432531
 40
0.7508581249193897
 40
1.0
 40
1.0
 40
1.0
 40
1.0
 10
2497.00650498571
 20
7201.52160393412
 30
0.0
 10
2497.011513938748
 20
7201.521301674871
 30
0.0
 10
2497.021528767804
 20
7201.520697342055
 30
0.0
 10
2497.050703023549
 20
7201.518889629162
 30
0.0
 10
2497.09800788719
 20
7201.515818751551
 30
0.0
 10
2497.166596295034
 20
7201.511069457535
 30
0.0
 10
2497.221321321138
 20
7201.506835947624
 30
0.0
 10
2497.248636101894
 20
7201.504722885222
 30
0.0
  0
LINE
  5
262
330
1F
100
AcDbEntity
  8
0
  6
Continuous
 62
     7
370
    25
100
AcDbLine
 10
2497.558448065
 20
7201.4712559741
 30
0.0
 11
2497.5589666478
 21
7201.4762290086
 31
0.0
  0
LINE
  5
263
330
1F
100
AcDbEntity
  8
0
  6
Continuous
 62
     7
370
    25
100
AcDbLine
 10
2497.8897197569
 20
7201.4322793161
 30
0.0
 11
2497.8903695884
 21
7201.4372369081
 31
0.0
  0
LINE
  5
264
330
1F
100
AcDbEntity
  8
0
  6
Continuous
 62
     7
370
    25
100
AcDbLine
 10
2497.8903695884
 20
7201.4372369081
 30
0.0
 11
2497.9111654315
 21
7201.4344934547
 31
0.0
  0
LINE
  5
265
330
1F
100
AcDbEntity
  8
0
  6
Continuous
 62
     7
370
    25
100
AcDbLine
 10
2496.8512699273
 20
7201.5249636134
 30
0.0
 11
2496.8515083287
 21
7201.5299579267
 31
0.0
  0
LINE
  5
266
330
1F
100
AcDbEntity
  8
0
  6
Continuous
 62
     7
370
    25
100
AcDbLine
 10
2497.7565743038
 20
7201.4490122026
 30
0.0
 11
2497.7571713836
 21
7201.4539764241
 31
0.0
  0
LINE
  5
267
330
1F
100
AcDbEntity
  8
0
  6
Continuous
 62
     7
370
    25
100
AcDbLine
 10
2494.4579081657
 20
7201.4165431934
 30
0.0
 11
2494.4586177248
 21
7201.4115937969
 31
0.0
  0
LINE
  5
268
330
1F
100
AcDbEntity
  8
0
  6
Continuous
 62
     7
370
    25
100
AcDbLine
 10
2496.7396614014
 20
7201.5347999624
 30
0.0
 11
2496.7394672958
 21
7201.5298037315
 31
0.0
  0
LINE
  5
269
330
1F
100
AcDbEntity
  8
0
  6
Continuous
 62
     7
370
    25
100
AcDbLine
 10
2497.6337986358
 20
7201.4631697214
 30
0.0
 11
2497.6343470723
 21
7201.4681395521
 31
0.0
  0
LINE
  5
26A
330
1F
100
AcDbEntity
  8
0
  6
Continuous
 62
     7
370
    25
100
AcDbLine
 10
2500.3099660175
 20
7200.8735465732
 30
0.0
 11
2500.3083579299
 21
7200.8688122248
 31
0.0
  0
CIRCLE
  5
26B
330
1F
100
AcDbEntity
  8
0
  6
Continuous
 62
     7
370
    25
100
AcDbCircle
 10
2496.2495448663
 20
7188.9193169838
 30
0.0
 40
11.95000000000027
  0
CIRCLE
  5
26C
330
1F
100
AcDbEntity
  8
0
  6
Continuous
 62
     7
370
    25
100
AcDbCircle
 10
2496.2495448663
 20
7188.9193169838
 30
0.0
 40
12.44999999999982
  0
LINE
  5
26D
330
1F
100
AcDbEntity
  8
0
  6
Continuous
 62
     7
370
    25
100
AcDbLine
 10
2489.6913438935
 20
7144.4193169838
 30
0.0
 11
2502.8077458391
 21
7144.4193169838
 31
0.0
  0
ARC
  5
26E
330
1F
100
AcDbEntity
  8
0
  6
Continuous
 62
     7
370
    25
100
AcDbCircle
 10
2496.2495448663
 20
7146.7943169838
 30
0.0
 40
6.975000000000364
100
AcDbArc
 50
180.0
 51
199.9074488975
  0
ARC
  5
26F
330
1F
100
AcDbEntity
  8
0
  6
Continuous
 62
     7
370
    25
100
AcDbCircle
 10
2496.2495448663
 20
7146.7943169838
 30
0.0
 40
6.974999999999909
100
AcDbArc
 50
340.0925511025
 51
0.0
  0
LINE
  5
270
330
1F
100
AcDbEntity
  8
0
  6
Continuous
 62
     7
370
    25
100
AcDbLine
 10
2490.4478209846
 20
7143.9193169838
 30
0.0
 11
2502.051268748
 21
7143.9193169838
 31
0.0
  0
LINE
  5
271
330
1F
100
AcDbEntity
  8
0
  6
Continuous
 62
     7
370
    25
100
AcDbLine
 10
2490.4478209846
 20
7143.9193169838
 30
0.0
 11
2489.6913438935
 21
7144.4193169838
 31
0.0
  0
LINE
  5
272
330
1F
100
AcDbEntity
  8
0
  6
Continuous
 62
     7
370
    25
100
AcDbLine
 10
2502.8077458391
 20
7144.4193169838
 30
0.0
 11
2502.051268748
 21
7143.9193169838
 31
0.0
  0
LWPOLYLINE
  5
273
330
1F
100
AcDbEntity
  8
0
  6
Continuous
 62
     7
370
    25
100
AcDbPolyline
 90
        3
 70
   128
 43
0.0
 10
2496.2495448663
 20
7204.0443169838
 10
2494.6249841036
 20
7203.8689932634
 10
2493.9517674465
 20
7203.7422833246
  0
LWPOLYLINE
  5
274
330
1F
100
AcDbEntity
  8
0
  6
Continuous
 62
     7
370
    25
100
AcDbPolyline
 90
        3
 70
   128
 43
0.0
 10
2498.5474483517
 20
7203.7422565554
 10
2497.874105629
 20
7203.8689932634
 10
2496.2495448663
 20
7204.0443169838
  0
ARC
  5
275
330
1F
100
AcDbEntity
  8
0
  6
Continuous
 62
     7
370
    25
100
AcDbCircle
 10
2496.2495448663
 20
7188.9193169838
 30
0.0
 40
12.7000000000002
100
AcDbArc
 50
18.1209295307
 51
177.8167486155
  0
ARC
  5
276
330
1F
100
AcDbEntity
  8
0
  6
Continuous
 62
     7
370
    25
100
AcDbCircle
 10
2496.2495448663
 20
7188.9193169838
 30
0.0
 40
12.69999999999991
100
AcDbArc
 50
303.3130106878
 51
341.8790704693
  0
ARC
  5
277
330
1F
100
AcDbEntity
  8
0
  6
Continuous
 62
     7
370
    25
100
AcDbCircle
 10
2496.2495448663
 20
7188.9193169838
 30
0.0
 40
12.7000000000002
100
AcDbArc
 50
177.8167486155
 51
236.6869893122
  0
ARC
  5
278
330
1F
100
AcDbEntity
  8
0
  6
Continuous
 62
     7
370
    25
100
AcDbCircle
 10
2496.2495448663
 20
7188.9193169838
 30
0.0
 40
14.75851854342797
100
AcDbArc
 50
15.5240025033
 51
241.7962522017
  0
ARC
  5
279
330
1F
100
AcDbEntity
  8
0
  6
Continuous
 62
     7
370
    25
100
AcDbCircle
 10
2496.2495448663
 20
7188.9193169838
 30
0.0
 40
14.75851854342753
100
AcDbArc
 50
298.2037477983
 51
344.4759974967
  0
ARC
  5
27A
330
1F
100
AcDbEntity
  8
0
  6
Continuous
 62
     7
370
    25
100
AcDbCircle
 10
2496.2495448663
 20
7188.9193169838
 30
0.0
 40
14.99999999999996
100
AcDbArc
 50
297.7102220493
 51
344.7320573143
  0
ARC
  5
27B
330
1F
100
AcDbEntity
  8
0
  6
Continuous
 62
     7
370
    25
100
AcDbCircle
 10
2496.2495448663
 20
7188.9193169838
 30
0.0
 40
15.00000000000001
100
AcDbArc
 50
15.2679426857
 51
242.2897779507
  0
ENDSEC
  0
SECTION
  2
OBJECTS
  0
DICTIONARY
  5
C
330
0
100
AcDbDictionary
281
     1
  3
ACAD_GROUP
350
D
  3
ACAD_LAYOUT
350
1A
  3
ACAD_MLINESTYLE
350
17
  3
ACAD_PLOTSETTINGS
350
19
  3
ACAD_PLOTSTYLENAME
350
E
  3
ACAD_SCALELIST
350
47
  3
DWGPROPS
350
27C
  0
DICTIONARY
  5
D
102
{ACAD_REACTORS
330
C
102
}
330
C
100
AcDbDictionary
281
     1
  0
DICTIONARY
  5
1A
102
{ACAD_REACTORS
330
C
102
}
330
C
100
AcDbDictionary
281
     1
  3
Layout1
350
1E
  3
Layout2
350
26
  3
Model
350
22
  0
DICTIONARY
  5
17
102
{ACAD_REACTORS
330
C
102
}
330
C
100
AcDbDictionary
281
     1
  3
Standard
350
18
  0
DICTIONARY
  5
19
102
{ACAD_REACTORS
330
C
102
}
330
C
100
AcDbDictionary
281
     1
  0
ACDBDICTIONARYWDFLT
  5
E
102
{ACAD_REACTORS
330
C
102
}
330
C
100
AcDbDictionary
281
     1
  3
Normal
350
F
100
AcDbDictionaryWithDefault
340
F
  0
DICTIONARY
  5
47
102
{ACAD_REACTORS
330
C
102
}
330
C
100
AcDbDictionary
281
     1
  3
A0
350
48
  3
A1
350
49
  3
A2
350
4A
  3
A3
350
4B
  3
A4
350
4C
  3
A5
350
4D
  3
A6
350
4E
  3
A7
350
4F
  3
A8
350
50
  3
A9
350
51
  3
B0
350
52
  3
B1
350
53
  3
B2
350
54
  3
B3
350
55
  3
B4
350
56
  3
B5
350
57
  3
B6
350
58
  3
B7
350
59
  3
B8
350
5A
  3
B9
350
5B
  3
C0
350
5C
  3
C1
350
5D
  3
C2
350
5E
  3
C3
350
5F
  3
C4
350
60
  3
C5
350
61
  3
C6
350
62
  3
C7
350
63
  3
C8
350
64
  3
C9
350
65
  3
D0
350
66
  3
D1
350
67
  3
D2
350
68
  0
XRECORD
  5
27C
102
{ACAD_REACTORS
330
C
102
}
330
C
100
AcDbXrecord
280
     1
  1
DWGPROPS COOKIE
  2

  3

  4

  6

  7

  8
radek.stransky
  9

300
=
301
=
302
=
303
=
304
=
305
=
306
=
307
=
308
=
309
=
 40
0.0
 41
2459089.441973021
 42
2459089.441973947
  1

 90
        0
  0
LAYOUT
  5
1E
102
{ACAD_REACTORS
330
1A
102
}
330
1A
100
AcDbPlotSettings
  1

  2
none_device
  4

  6

 40
0.0
 41
0.0
 42
0.0
 43
0.0
 44
0.0
 45
0.0
 46
0.0
 47
0.0
 48
0.0
 49
0.0
140
0.0
141
0.0
142
1.0
143
1.0
 70
   688
 72
     1
 73
     0
 74
     5
  7

 75
    16
147
1.0
148
0.0
149
0.0
100
AcDbLayout
  1
Layout1
 70
     1
 71
     1
 10
0.0
 20
0.0
 11
420.0
 21
297.0
 12
0.0
 22
0.0
 32
0.0
 14
1.0000000000E+20
 24
1.0000000000E+20
 34
1.0000000000E+20
 15
-1.0000000000E+20
 25
-1.0000000000E+20
 35
-1.0000000000E+20
146
0.0
 13
0.0
 23
0.0
 33
0.0
 16
1.0
 26
0.0
 36
0.0
 17
0.0
 27
1.0
 37
0.0
 76
     0
330
1B
  0
LAYOUT
  5
26
102
{ACAD_REACTORS
330
1A
102
}
330
1A
100
AcDbPlotSettings
  1

  2
none_device
  4

  6

 40
0.0
 41
0.0
 42
0.0
 43
0.0
 44
0.0
 45
0.0
 46
0.0
 47
0.0
 48
0.0
 49
0.0
140
0.0
141
0.0
142
1.0
143
1.0
 70
   688
 72
     1
 73
     0
 74
     5
  7

 75
    16
147
1.0
148
0.0
149
0.0
100
AcDbLayout
  1
Layout2
 70
     1
 71
     2
 10
0.0
 20
0.0
 11
0.0
 21
0.0
 12
0.0
 22
0.0
 32
0.0
 14
0.0
 24
0.0
 34
0.0
 15
0.0
 25
0.0
 35
0.0
146
0.0
 13
0.0
 23
0.0
 33
0.0
 16
1.0
 26
0.0
 36
0.0
 17
0.0
 27
1.0
 37
0.0
 76
     0
330
23
  0
LAYOUT
  5
22
102
{ACAD_REACTORS
330
1A
102
}
330
1A
100
AcDbPlotSettings
  1

  2
none_device
  4
Letter_(8.50_x_11.00_Inches)
  6

 40
6.35
 41
6.35
 42
6.35000508
 43
6.35000508
 44
215.9
 45
279.4
 46
0.0
 47
0.0
 48
0.0
 49
0.0
140
0.0
141
0.0
142
1.0
143
1.0
 70
  1712
 72
     1
 73
     0
 74
     0
  7

 75
     0
147
1.0
148
0.0
149
0.0
100
AcDbLayout
  1
Model
 70
     1
 71
     0
 10
0.0
 20
0.0
 11
20000.0
 21
10000.0
 12
0.0
 22
0.0
 32
0.0
 14
0.0
 24
0.0
 34
0.0
 15
20000.0
 25
10000.0
 35
0.0
146
0.0
 13
0.0
 23
0.0
 33
0.0
 16
1.0
 26
0.0
 36
0.0
 17
0.0
 27
1.0
 37
0.0
 76
     0
330
1F
331
29
  0
MLINESTYLE
  5
18
102
{ACAD_REACTORS
330
17
102
}
330
17
100
AcDbMlineStyle
  2
Standard
 70
     0
  3

 62
   256
 51
90.0
 52
90.0
 71
     2
 49
0.5
 62
   256
  6
BYLAYER
 49
-0.5
 62
   256
  6
BYLAYER
  0
ACDBPLACEHOLDER
  5
F
102
{ACAD_REACTORS
330
E
102
}
330
E
  0
SCALE
  5
48
102
{ACAD_REACTORS
330
47
102
}
330
47
100
AcDbScale
 70
     0
300
1:1
140
1.0
141
1.0
290
     1
  0
SCALE
  5
49
102
{ACAD_REACTORS
330
47
102
}
330
47
100
AcDbScale
 70
     0
300
1:2
140
1.0
141
2.0
290
     0
  0
SCALE
  5
4A
102
{ACAD_REACTORS
330
47
102
}
330
47
100
AcDbScale
 70
     0
300
1:4
140
1.0
141
4.0
290
     0
  0
SCALE
  5
4B
102
{ACAD_REACTORS
330
47
102
}
330
47
100
AcDbScale
 70
     0
300
1:5
140
1.0
141
5.0
290
     0
  0
SCALE
  5
4C
102
{ACAD_REACTORS
330
47
102
}
330
47
100
AcDbScale
 70
     0
300
1:8
140
1.0
141
8.0
290
     0
  0
SCALE
  5
4D
102
{ACAD_REACTORS
330
47
102
}
330
47
100
AcDbScale
 70
     0
300
1:10
140
1.0
141
10.0
290
     0
  0
SCALE
  5
4E
102
{ACAD_REACTORS
330
47
102
}
330
47
100
AcDbScale
 70
     0
300
1:16
140
1.0
141
16.0
290
     0
  0
SCALE
  5
4F
102
{ACAD_REACTORS
330
47
102
}
330
47
100
AcDbScale
 70
     0
300
1:20
140
1.0
141
20.0
290
     0
  0
SCALE
  5
50
102
{ACAD_REACTORS
330
47
102
}
330
47
100
AcDbScale
 70
     0
300
1:30
140
1.0
141
30.0
290
     0
  0
SCALE
  5
51
102
{ACAD_REACTORS
330
47
102
}
330
47
100
AcDbScale
 70
     0
300
1:40
140
1.0
141
40.0
290
     0
  0
SCALE
  5
52
102
{ACAD_REACTORS
330
47
102
}
330
47
100
AcDbScale
 70
     0
300
1:50
140
1.0
141
50.0
290
     0
  0
SCALE
  5
53
102
{ACAD_REACTORS
330
47
102
}
330
47
100
AcDbScale
 70
     0
300
1:100
140
1.0
141
100.0
290
     0
  0
SCALE
  5
54
102
{ACAD_REACTORS
330
47
102
}
330
47
100
AcDbScale
 70
     0
300
2:1
140
2.0
141
1.0
290
     0
  0
SCALE
  5
55
102
{ACAD_REACTORS
330
47
102
}
330
47
100
AcDbScale
 70
     0
300
4:1
140
4.0
141
1.0
290
     0
  0
SCALE
  5
56
102
{ACAD_REACTORS
330
47
102
}
330
47
100
AcDbScale
 70
     0
300
8:1
140
8.0
141
1.0
290
     0
  0
SCALE
  5
57
102
{ACAD_REACTORS
330
47
102
}
330
47
100
AcDbScale
 70
     0
300
10:1
140
10.0
141
1.0
290
     0
  0
SCALE
  5
58
102
{ACAD_REACTORS
330
47
102
}
330
47
100
AcDbScale
 70
     0
300
100:1
140
100.0
141
1.0
290
     0
  0
SCALE
  5
59
102
{ACAD_REACTORS
330
47
102
}
330
47
100
AcDbScale
 70
     0
300
1/128" = 1'-0"
140
0.0078125
141
12.0
290
     0
  0
SCALE
  5
5A
102
{ACAD_REACTORS
330
47
102
}
330
47
100
AcDbScale
 70
     0
300
1/64" = 1'-0"
140
0.015625
141
12.0
290
     0
  0
SCALE
  5
5B
102
{ACAD_REACTORS
330
47
102
}
330
47
100
AcDbScale
 70
     0
300
1/32" = 1'-0"
140
0.03125
141
12.0
290
     0
  0
SCALE
  5
5C
102
{ACAD_REACTORS
330
47
102
}
330
47
100
AcDbScale
 70
     0
300
1/16" = 1'-0"
140
0.0625
141
12.0
290
     0
  0
SCALE
  5
5D
102
{ACAD_REACTORS
330
47
102
}
330
47
100
AcDbScale
 70
     0
300
3/32" = 1'-0"
140
0.09375
141
12.0
290
     0
  0
SCALE
  5
5E
102
{ACAD_REACTORS
330
47
102
}
330
47
100
AcDbScale
 70
     0
300
1/8" = 1'-0"
140
0.125
141
12.0
290
     0
  0
SCALE
  5
5F
102
{ACAD_REACTORS
330
47
102
}
330
47
100
AcDbScale
 70
     0
300
3/16" = 1'-0"
140
0.1875
141
12.0
290
     0
  0
SCALE
  5
60
102
{ACAD_REACTORS
330
47
102
}
330
47
100
AcDbScale
 70
     0
300
1/4" = 1'-0"
140
0.25
141
12.0
290
     0
  0
SCALE
  5
61
102
{ACAD_REACTORS
330
47
102
}
330
47
100
AcDbScale
 70
     0
300
3/8" = 1'-0"
140
0.375
141
12.0
290
     0
  0
SCALE
  5
62
102
{ACAD_REACTORS
330
47
102
}
330
47
100
AcDbScale
 70
     0
300
1/2" = 1'-0"
140
0.5
141
12.0
290
     0
  0
SCALE
  5
63
102
{ACAD_REACTORS
330
47
102
}
330
47
100
AcDbScale
 70
     0
300
3/4" = 1'-0"
140
0.75
141
12.0
290
     0
  0
SCALE
  5
64
102
{ACAD_REACTORS
330
47
102
}
330
47
100
AcDbScale
 70
     0
300
1" = 1'-0"
140
1.0
141
12.0
290
     0
  0
SCALE
  5
65
102
{ACAD_REACTORS
330
47
102
}
330
47
100
AcDbScale
 70
     0
300
1-1/2" = 1'-0"
140
1.5
141
12.0
290
     0
  0
SCALE
  5
66
102
{ACAD_REACTORS
330
47
102
}
330
47
100
AcDbScale
 70
     0
300
3" = 1'-0"
140
3.0
141
12.0
290
     0
  0
SCALE
  5
67
102
{ACAD_REACTORS
330
47
102
}
330
47
100
AcDbScale
 70
     0
300
6" = 1'-0"
140
6.0
141
12.0
290
     0
  0
SCALE
  5
68
102
{ACAD_REACTORS
330
47
102
}
330
47
100
AcDbScale
 70
     0
300
1'-0" = 1'-0"
140
12.0
141
12.0
290
     0
  0
ENDSEC
  0
EOF
