  0
SECTION
  2
HEADER
  9
$ACADVER
  1
AC1015
  9
$ACADMAINTVER
 70
     6
  9
$DWGCODEPAGE
  3
ANSI_1250
  9
$INSBASE
 10
0.0
 20
0.0
 30
0.0
  9
$EXTMIN
 10
0.0
 20
0.0
 30
0.0
  9
$EXTMAX
 10
20000.0
 20
10000.0
 30
0.0
  9
$LIMMIN
 10
0.0
 20
0.0
  9
$LIMMAX
 10
20000.0
 20
10000.0
  9
$ORTHOMODE
 70
     0
  9
$REGENMODE
 70
     1
  9
$FILLMODE
 70
     1
  9
$QTEXTMODE
 70
     0
  9
$MIRRTEXT
 70
     1
  9
$LTSCALE
 40
1.0
  9
$ATTMODE
 70
     1
  9
$TEXTSIZE
 40
2.0
  9
$TRACEWID
 40
1.0
  9
$TEXTSTYLE
  7
Standard
  9
$CLAYER
  8
0
  9
$CELTYPE
  6
ByLayer
  9
$CECOLOR
 62
   256
  9
$CELTSCALE
 40
1.0
  9
$DISPSILH
 70
     0
  9
$DIMSCALE
 40
1.0
  9
$DIMASZ
 40
2.0
  9
$DIMEXO
 40
1.0
  9
$DIMDLI
 40
3.75
  9
$DIMRND
 40
0.0
  9
$DIMDLE
 40
0.0
  9
$DIMEXE
 40
1.0
  9
$DIMTP
 40
0.0
  9
$DIMTM
 40
0.0
  9
$DIMTXT
 40
2.0
  9
$DIMCEN
 40
2.5
  9
$DIMTSZ
 40
0.0
  9
$DIMTOL
 70
     0
  9
$DIMLIM
 70
     0
  9
$DIMTIH
 70
     1
  9
$DIMTOH
 70
     1
  9
$DIMSE1
 70
     0
  9
$DIMSE2
 70
     0
  9
$DIMTAD
 70
     1
  9
$DIMZIN
 70
     0
  9
$DIMBLK
  1

  9
$DIMASO
 70
     1
  9
$DIMSHO
 70
     1
  9
$DIMPOST
  1

  9
$DIMAPOST
  1

  9
$DIMALT
 70
     0
  9
$DIMALTD
 70
     3
  9
$DIMALTF
 40
0.0393700787
  9
$DIMLFAC
 40
1.0
  9
$DIMTOFL
 70
     1
  9
$DIMTVP
 40
0.0
  9
$DIMTIX
 70
     0
  9
$DIMSOXD
 70
     0
  9
$DIMSAH
 70
     0
  9
$DIMBLK1
  1

  9
$DIMBLK2
  1

  9
$DIMSTYLE
  2
ISO-25
  9
$DIMCLRD
 70
     0
  9
$DIMCLRE
 70
     0
  9
$DIMCLRT
 70
     0
  9
$DIMTFAC
 40
1.0
  9
$DIMGAP
 40
1.524
  9
$DIMJUST
 70
     0
  9
$DIMSD1
 70
     0
  9
$DIMSD2
 70
     0
  9
$DIMTOLJ
 70
     0
  9
$DIMTZIN
 70
     0
  9
$DIMALTZ
 70
     0
  9
$DIMALTTZ
 70
     0
  9
$DIMUPT
 70
     0
  9
$DIMDEC
 70
     2
  9
$DIMTDEC
 70
     0
  9
$DIMALTU
 70
     2
  9
$DIMALTTD
 70
     3
  9
$DIMTXSTY
  7
Standard
  9
$DIMAUNIT
 70
     0
  9
$DIMADEC
 70
     2
  9
$DIMALTRND
 40
0.0
  9
$DIMAZIN
 70
     0
  9
$DIMDSEP
 70
    44
  9
$DIMATFIT
 70
     3
  9
$DIMFRAC
 70
     0
  9
$DIMLDRBLK
  1

  9
$DIMLUNIT
 70
     2
  9
$DIMLWD
 70
    -2
  9
$DIMLWE
 70
    -2
  9
$DIMTMOVE
 70
     0
  9
$LUNITS
 70
     2
  9
$LUPREC
 70
     3
  9
$SKETCHINC
 40
1.0
  9
$FILLETRAD
 40
10.0
  9
$AUNITS
 70
     0
  9
$AUPREC
 70
     2
  9
$MENU
  1
.
  9
$ELEVATION
 40
0.0
  9
$PELEVATION
 40
0.0
  9
$THICKNESS
 40
0.0
  9
$LIMCHECK
 70
     0
  9
$CHAMFERA
 40
0.0
  9
$CHAMFERB
 40
0.0
  9
$CHAMFERC
 40
0.0
  9
$CHAMFERD
 40
0.0
  9
$SKPOLY
 70
     0
  9
$TDCREATE
 40
2459089.517952303
  9
$TDUCREATE
 40
2459089.43461897
  9
$TDUPDATE
 40
2459089.517953217
  9
$TDUUPDATE
 40
2459089.434619884
  9
$TDINDWG
 40
0.0000000116
  9
$TDUSRTIMER
 40
0.0000000116
  9
$USRTIMER
 70
     1
  9
$ANGBASE
 50
0.0
  9
$ANGDIR
 70
     0
  9
$PDMODE
 70
     0
  9
$PDSIZE
 40
-1.0
  9
$PLINEWID
 40
0.0
  9
$SPLFRAME
 70
     0
  9
$SPLINETYPE
 70
     6
  9
$SPLINESEGS
 70
     8
  9
$HANDSEED
  5
29C
  9
$SURFTAB1
 70
     6
  9
$SURFTAB2
 70
     6
  9
$SURFTYPE
 70
     6
  9
$SURFU
 70
     6
  9
$SURFV
 70
     6
  9
$UCSBASE
  2

  9
$UCSNAME
  2

  9
$UCSORG
 10
0.0
 20
0.0
 30
0.0
  9
$UCSXDIR
 10
1.0
 20
0.0
 30
0.0
  9
$UCSYDIR
 10
0.0
 20
1.0
 30
0.0
  9
$UCSORTHOREF
  2

  9
$UCSORTHOVIEW
 70
     0
  9
$UCSORGTOP
 10
0.0
 20
0.0
 30
0.0
  9
$UCSORGBOTTOM
 10
0.0
 20
0.0
 30
0.0
  9
$UCSORGLEFT
 10
0.0
 20
0.0
 30
0.0
  9
$UCSORGRIGHT
 10
0.0
 20
0.0
 30
0.0
  9
$UCSORGFRONT
 10
0.0
 20
0.0
 30
0.0
  9
$UCSORGBACK
 10
0.0
 20
0.0
 30
0.0
  9
$PUCSBASE
  2

  9
$PUCSNAME
  2

  9
$PUCSORG
 10
0.0
 20
0.0
 30
0.0
  9
$PUCSXDIR
 10
1.0
 20
0.0
 30
0.0
  9
$PUCSYDIR
 10
0.0
 20
1.0
 30
0.0
  9
$PUCSORTHOREF
  2

  9
$PUCSORTHOVIEW
 70
     0
  9
$PUCSORGTOP
 10
0.0
 20
0.0
 30
0.0
  9
$PUCSORGBOTTOM
 10
0.0
 20
0.0
 30
0.0
  9
$PUCSORGLEFT
 10
0.0
 20
0.0
 30
0.0
  9
$PUCSORGRIGHT
 10
0.0
 20
0.0
 30
0.0
  9
$PUCSORGFRONT
 10
0.0
 20
0.0
 30
0.0
  9
$PUCSORGBACK
 10
0.0
 20
0.0
 30
0.0
  9
$USERI1
 70
     0
  9
$USERI2
 70
     0
  9
$USERI3
 70
     0
  9
$USERI4
 70
     0
  9
$USERI5
 70
     0
  9
$USERR1
 40
0.0
  9
$USERR2
 40
0.0
  9
$USERR3
 40
0.0
  9
$USERR4
 40
0.0
  9
$USERR5
 40
0.0
  9
$WORLDVIEW
 70
     1
  9
$SHADEDGE
 70
     3
  9
$SHADEDIF
 70
    70
  9
$TILEMODE
 70
     1
  9
$MAXACTVP
 70
    64
  9
$PINSBASE
 10
0.0
 20
0.0
 30
0.0
  9
$PLIMCHECK
 70
     0
  9
$PEXTMIN
 10
1.0000000000E+20
 20
1.0000000000E+20
 30
1.0000000000E+20
  9
$PEXTMAX
 10
-1.0000000000E+20
 20
-1.0000000000E+20
 30
-1.0000000000E+20
  9
$PLIMMIN
 10
0.0
 20
0.0
  9
$PLIMMAX
 10
420.0
 20
297.0
  9
$UNITMODE
 70
     0
  9
$VISRETAIN
 70
     1
  9
$PLINEGEN
 70
     0
  9
$PSLTSCALE
 70
     1
  9
$TREEDEPTH
 70
  3020
  9
$CMLSTYLE
  2
Standard
  9
$CMLJUST
 70
     0
  9
$CMLSCALE
 40
20.0
  9
$PROXYGRAPHICS
 70
     1
  9
$MEASUREMENT
 70
     1
  9
$CELWEIGHT
370
    -1
  9
$ENDCAPS
280
     0
  9
$JOINSTYLE
280
     0
  9
$LWDISPLAY
290
     1
  9
$INSUNITS
 70
     4
  9
$HYPERLINKBASE
  1

  9
$STYLESHEET
  1

  9
$XEDIT
290
     1
  9
$CEPSNTYPE
380
     0
  9
$PSTYLEMODE
290
     1
  9
$FINGERPRINTGUID
  2
{846266cc-fdb0-4fee-8321-6fefd7c73cc8}
  9
$VERSIONGUID
  2
{FAEB1C32-E019-11D5-929B-00C0DF256EC4}
  9
$EXTNAMES
290
     1
  9
$PSVPSCALE
 40
0.0
  9
$OLESTARTUP
290
     0
  0
ENDSEC
  0
SECTION
  2
CLASSES
  0
CLASS
  1
ACDBDICTIONARYWDFLT
  2
AcDbDictionaryWithDefault
  3
ObjectDBX Classes
 90
        0
280
     0
281
     0
  0
CLASS
  1
VISUALSTYLE
  2
AcDbVisualStyle
  3
ObjectDBX Classes
 90
     4095
280
     0
281
     0
  0
CLASS
  1
MATERIAL
  2
AcDbMaterial
  3
ObjectDBX Classes
 90
     1153
280
     0
281
     0
  0
CLASS
  1
SCALE
  2
AcDbScale
  3
ObjectDBX Classes
 90
     1153
280
     0
281
     0
  0
CLASS
  1
TABLESTYLE
  2
AcDbTableStyle
  3
ObjectDBX Classes
 90
     4095
280
     0
281
     0
  0
CLASS
  1
MLEADERSTYLE
  2
AcDbMLeaderStyle
  3
ACDB_MLEADERSTYLE_CLASS
 90
     4095
280
     0
281
     0
  0
CLASS
  1
SUN
  2
AcDbSun
  3
SCENEOE
 90
     1153
280
     0
281
     0
  0
CLASS
  1
ACDBPLACEHOLDER
  2
AcDbPlaceHolder
  3
ObjectDBX Classes
 90
        0
280
     0
281
     0
  0
CLASS
  1
LAYOUT
  2
AcDbLayout
  3
ObjectDBX Classes
 90
        0
280
     0
281
     0
  0
ENDSEC
  0
SECTION
  2
TABLES
  0
TABLE
  2
VPORT
  5
8
330
0
100
AcDbSymbolTable
 70
     1
  0
VPORT
  5
29
330
8
100
AcDbSymbolTableRecord
100
AcDbViewportTableRecord
  2
*Active
 70
     0
 10
0.0
 20
0.0
 11
1.0
 21
1.0
 12
10000.0
 22
5000.0
 13
0.0
 23
0.0
 14
10.0
 24
10.0
 15
10.0
 25
10.0
 16
0.0
 26
0.0
 36
1.0
 17
0.0
 27
0.0
 37
0.0
 40
10000.0
 41
2.0
 42
50.0
 43
0.0
 44
0.0
 50
0.0
 51
0.0
 71
     0
 72
  2000
 73
     1
 74
     3
 75
     0
 76
     0
 77
     0
 78
     0
281
     0
 65
     1
110
0.0
120
0.0
130
0.0
111
1.0
121
0.0
131
0.0
112
0.0
122
1.0
132
0.0
 79
     0
146
0.0
  0
ENDTAB
  0
TABLE
  2
LTYPE
  5
5
330
0
100
AcDbSymbolTable
 70
     6
  0
LTYPE
  5
14
330
5
100
AcDbSymbolTableRecord
100
AcDbLinetypeTableRecord
  2
ByBlock
 70
     0
  3

 72
    65
 73
     0
 40
0.0
  0
LTYPE
  5
15
330
5
100
AcDbSymbolTableRecord
100
AcDbLinetypeTableRecord
  2
ByLayer
 70
     0
  3

 72
    65
 73
     0
 40
0.0
  0
LTYPE
  5
16
330
5
100
AcDbSymbolTableRecord
100
AcDbLinetypeTableRecord
  2
Continuous
 70
     0
  3
Solid line
 72
    65
 73
     0
 40
0.0
  0
LTYPE
  5
6E
330
5
100
AcDbSymbolTableRecord
100
AcDbLinetypeTableRecord
  2
HIDDEN
 70
     0
  3
Hidden __ __ __ __ __ __ __ __ __ __ __ __ __ __
 72
    65
 73
     2
 40
1.905
 49
1.27
 74
     0
 49
-0.635
 74
     0
  0
LTYPE
  5
6F
330
5
100
AcDbSymbolTableRecord
100
AcDbLinetypeTableRecord
  2
PHANTOM
 70
     0
  3
Phantom ______  __  __  ______  __  __  ______
 72
    65
 73
     6
 40
12.7
 49
6.35
 74
     0
 49
-1.27
 74
     0
 49
1.27
 74
     0
 49
-1.27
 74
     0
 49
1.27
 74
     0
 49
-1.27
 74
     0
  0
LTYPE
  5
70
330
5
100
AcDbSymbolTableRecord
100
AcDbLinetypeTableRecord
  2
CENTER
 70
     0
  3
Center ____ _ ____ _ ____ _ ____ _ ____ _ ____
 72
    65
 73
     4
 40
10.16
 49
6.35
 74
     0
 49
-1.27
 74
     0
 49
1.27
 74
     0
 49
-1.27
 74
     0
  0
LTYPE
  5
71
330
5
100
AcDbSymbolTableRecord
100
AcDbLinetypeTableRecord
  2
CENTERX2
 70
     0
  3
Center (2x) ________  __  ________  __  _____
 72
    65
 73
     4
 40
20.32
 49
12.7
 74
     0
 49
-2.54
 74
     0
 49
2.54
 74
     0
 49
-2.54
 74
     0
  0
LTYPE
  5
72
330
5
100
AcDbSymbolTableRecord
100
AcDbLinetypeTableRecord
  2
DOT2
 70
     0
  3
Dot (.5x) ........................................
 72
    65
 73
     2
 40
0.635
 49
0.0
 74
     0
 49
-0.635
 74
     0
  0
ENDTAB
  0
TABLE
  2
LAYER
  5
2
330
0
100
AcDbSymbolTable
 70
    13
  0
LAYER
  5
10
330
2
100
AcDbSymbolTableRecord
100
AcDbLayerTableRecord
  2
0
 70
     0
 62
     7
  6
Continuous
370
    -3
390
F
  0
LAYER
  5
73
330
2
100
AcDbSymbolTableRecord
100
AcDbLayerTableRecord
  2
FORMAT
 70
     0
 62
     7
  6
Continuous
370
    -3
390
F
  0
LAYER
  5
74
330
2
100
AcDbSymbolTableRecord
100
AcDbLayerTableRecord
  2
OSA
 70
     0
 62
     7
  6
CENTER
370
    -3
390
F
  0
LAYER
  5
75
330
2
100
AcDbSymbolTableRecord
100
AcDbLayerTableRecord
  2
0_35
 70
     0
 62
     7
  6
Continuous
370
    35
390
F
  0
LAYER
  5
76
330
2
100
AcDbSymbolTableRecord
100
AcDbLayerTableRecord
  2
0_5
 70
     0
 62
     7
  6
Continuous
370
    50
390
F
  0
LAYER
  5
77
330
2
100
AcDbSymbolTableRecord
100
AcDbLayerTableRecord
  2
0_25
 70
     0
 62
     7
  6
Continuous
370
    25
390
F
  0
LAYER
  5
78
330
2
100
AcDbSymbolTableRecord
100
AcDbLayerTableRecord
  2
0_18
 70
     0
 62
     7
  6
Continuous
370
    -3
390
F
  0
LAYER
  5
79
330
2
100
AcDbSymbolTableRecord
100
AcDbLayerTableRecord
  2
SLD-0
 70
     0
 62
   179
  6
Continuous
370
    -3
390
F
  0
LAYER
  5
7A
330
2
100
AcDbSymbolTableRecord
100
AcDbLayerTableRecord
  2
KOTY
 70
     0
 62
     7
  6
Continuous
370
    -3
390
F
  0
LAYER
  5
7B
330
2
100
AcDbSymbolTableRecord
100
AcDbLayerTableRecord
  2
SILNA
 70
     0
 62
   179
  6
Continuous
370
    -3
390
F
  0
LAYER
  5
7C
330
2
100
AcDbSymbolTableRecord
100
AcDbLayerTableRecord
  2
0_18_1
 70
     0
 62
   179
  6
Continuous
370
    -3
390
F
  0
LAYER
  5
7D
330
2
100
AcDbSymbolTableRecord
100
AcDbLayerTableRecord
  2
0_35_1
 70
     0
 62
   179
  6
Continuous
370
    35
390
F
  0
LAYER
  5
7E
330
2
100
AcDbSymbolTableRecord
100
AcDbLayerTableRecord
  2
0_5_1
 70
     0
 62
   179
  6
Continuous
370
    50
390
F
  0
ENDTAB
  0
TABLE
  2
STYLE
  5
3
330
0
100
AcDbSymbolTable
 70
     1
  0
STYLE
  5
11
330
3
100
AcDbSymbolTableRecord
100
AcDbTextStyleTableRecord
  2
Standard
 70
     0
 40
0.0
 41
1.0
 50
0.0
 71
     0
 42
2.0
  3
txt
  4

  0
ENDTAB
  0
TABLE
  2
VIEW
  5
6
330
0
100
AcDbSymbolTable
 70
     0
  0
ENDTAB
  0
TABLE
  2
UCS
  5
7
330
0
100
AcDbSymbolTable
 70
     0
  0
ENDTAB
  0
TABLE
  2
APPID
  5
9
330
0
100
AcDbSymbolTable
 70
     1
  0
APPID
  5
12
330
9
100
AcDbSymbolTableRecord
100
AcDbRegAppTableRecord
  2
ACAD
 70
     0
  0
ENDTAB
  0
TABLE
  2
DIMSTYLE
  5
A
330
0
100
AcDbSymbolTable
 70
     1
100
AcDbDimStyleTable
  0
DIMSTYLE
105
27
330
A
100
AcDbSymbolTableRecord
100
AcDbDimStyleTableRecord
  2
ISO-25
 70
     0
 41
2.5
 42
0.625
 43
3.75
 44
1.25
 73
     0
 74
     0
 77
     1
 78
     8
140
2.5
141
2.5
143
0.0393700787
147
0.625
171
     3
172
     1
178
     0
271
     2
272
     2
274
     3
278
    44
283
     0
284
     8
340
11
  0
ENDTAB
  0
TABLE
  2
BLOCK_RECORD
  5
1
330
0
100
AcDbSymbolTable
 70
     1
  0
BLOCK_RECORD
  5
1F
330
1
100
AcDbSymbolTableRecord
100
AcDbBlockTableRecord
  2
*Model_Space
340
22
  0
BLOCK_RECORD
  5
1B
330
1
100
AcDbSymbolTableRecord
100
AcDbBlockTableRecord
  2
*Paper_Space
340
1E
  0
BLOCK_RECORD
  5
23
330
1
100
AcDbSymbolTableRecord
100
AcDbBlockTableRecord
  2
*Paper_Space0
340
26
  0
ENDTAB
  0
ENDSEC
  0
SECTION
  2
BLOCKS
  0
BLOCK
  5
20
330
1F
100
AcDbEntity
  8
0
100
AcDbBlockBegin
  2
*Model_Space
 70
     0
 10
0.0
 20
0.0
 30
0.0
  3
*Model_Space
  1

  0
ENDBLK
  5
21
330
1F
100
AcDbEntity
  8
0
100
AcDbBlockEnd
  0
BLOCK
  5
1C
330
1B
100
AcDbEntity
 67
     1
  8
0
100
AcDbBlockBegin
  2
*Paper_Space
 70
     0
 10
0.0
 20
0.0
 30
0.0
  3
*Paper_Space
  1

  0
ENDBLK
  5
1D
330
1B
100
AcDbEntity
 67
     1
  8
0
100
AcDbBlockEnd
  0
BLOCK
  5
24
330
23
100
AcDbEntity
  8
0
100
AcDbBlockBegin
  2
*Paper_Space0
 70
     0
 10
0.0
 20
0.0
 30
0.0
  3
*Paper_Space0
  1

  0
ENDBLK
  5
25
330
23
100
AcDbEntity
  8
0
100
AcDbBlockEnd
  0
ENDSEC
  0
SECTION
  2
ENTITIES
  0
LINE
  5
7F
330
1F
100
AcDbEntity
  8
0
  6
Continuous
 62
     7
370
    25
100
AcDbLine
 10
2714.6824523682
 20
6815.0878524948
 30
0.0
 11
2713.9324523682
 21
6815.8378524948
 31
0.0
  0
LINE
  5
80
330
1F
100
AcDbEntity
  8
0
  6
Continuous
 62
     7
370
    25
100
AcDbLine
 10
2701.4324523682
 20
6815.8378524948
 30
0.0
 11
2700.6824523682
 21
6815.0878524948
 31
0.0
  0
LINE
  5
81
330
1F
100
AcDbEntity
  8
0
  6
Continuous
 62
     7
370
    25
100
AcDbLine
 10
2714.6824523682
 20
6814.8378524948
 30
0.0
 11
2714.6824523682
 21
6815.0878524948
 31
0.0
  0
LINE
  5
82
330
1F
100
AcDbEntity
  8
0
  6
Continuous
 62
     7
370
    25
100
AcDbLine
 10
2700.6824523682
 20
6815.0878524948
 30
0.0
 11
2700.6824523682
 21
6814.8378524948
 31
0.0
  0
LINE
  5
83
330
1F
100
AcDbEntity
  8
0
  6
Continuous
 62
     7
370
    25
100
AcDbLine
 10
2695.2324523682
 20
6813.4878524948
 30
0.0
 11
2695.3824523682
 21
6813.3378524948
 31
0.0
  0
LINE
  5
84
330
1F
100
AcDbEntity
  8
0
  6
Continuous
 62
     7
370
    25
100
AcDbLine
 10
2719.9824523682
 20
6813.3378524948
 30
0.0
 11
2720.1324523682
 21
6813.4878524948
 31
0.0
  0
LINE
  5
85
330
1F
100
AcDbEntity
  8
0
  6
Continuous
 62
     7
370
    25
100
AcDbLine
 10
2695.2324523682
 20
6814.3378524948
 30
0.0
 11
2695.2324523682
 21
6813.4878524948
 31
0.0
  0
LINE
  5
86
330
1F
100
AcDbEntity
  8
0
  6
Continuous
 62
     7
370
    25
100
AcDbLine
 10
2720.1324523682
 20
6813.4878524948
 30
0.0
 11
2720.1324523682
 21
6814.3378524948
 31
0.0
  0
LINE
  5
87
330
1F
100
AcDbEntity
  8
0
  6
Continuous
 62
     7
370
    25
100
AcDbLine
 10
2720.1324523682
 20
6814.3378524948
 30
0.0
 11
2719.6324523682
 21
6814.8378524948
 31
0.0
  0
LINE
  5
88
330
1F
100
AcDbEntity
  8
0
  6
Continuous
 62
     7
370
    25
100
AcDbLine
 10
2695.7324523682
 20
6814.8378524948
 30
0.0
 11
2695.2324523682
 21
6814.3378524948
 31
0.0
  0
LINE
  5
89
330
1F
100
AcDbEntity
  8
0
  6
Continuous
 62
     7
370
    25
100
AcDbLine
 10
2720.0574523682
 20
6813.2378524948
 30
0.0
 11
2719.9574523682
 21
6813.3378524948
 31
0.0
  0
LINE
  5
8A
330
1F
100
AcDbEntity
  8
0
  6
Continuous
 62
     7
370
    25
100
AcDbLine
 10
2695.4074523682
 20
6813.3378524948
 30
0.0
 11
2695.3074523682
 21
6813.2378524948
 31
0.0
  0
LINE
  5
8B
330
1F
100
AcDbEntity
  8
0
  6
Continuous
 62
     7
370
    25
100
AcDbLine
 10
2695.3074523682
 20
6813.2378524948
 30
0.0
 11
2695.3074523682
 21
6738.9378524948
 31
0.0
  0
LINE
  5
8C
330
1F
100
AcDbEntity
  8
0
  6
Continuous
 62
     7
370
    25
100
AcDbLine
 10
2720.0574523682
 20
6738.9378524948
 30
0.0
 11
2720.0574523682
 21
6813.2378524948
 31
0.0
  0
LINE
  5
8D
330
1F
100
AcDbEntity
  8
0
  6
Continuous
 62
     7
370
    25
100
AcDbLine
 10
2695.3074523682
 20
6738.9378524948
 30
0.0
 11
2695.4074523682
 21
6738.8378524948
 31
0.0
  0
LINE
  5
8E
330
1F
100
AcDbEntity
  8
0
  6
Continuous
 62
     7
370
    25
100
AcDbLine
 10
2719.9574523682
 20
6738.8378524948
 30
0.0
 11
2720.0574523682
 21
6738.9378524948
 31
0.0
  0
LINE
  5
8F
330
1F
100
AcDbEntity
  8
0
  6
Continuous
 62
     7
370
    25
100
AcDbLine
 10
2703.0574523682
 20
6784.0434351124
 30
0.0
 11
2703.0574523682
 21
6783.8666584171
 31
0.0
  0
LINE
  5
90
330
1F
100
AcDbEntity
  8
0
  6
Continuous
 62
     7
370
    25
100
AcDbLine
 10
2712.3074523682
 20
6783.8666584171
 30
0.0
 11
2712.3074523682
 21
6784.0434351124
 31
0.0
  0
LINE
  5
91
330
1F
100
AcDbEntity
  8
0
  6
Continuous
 62
     7
370
    25
100
AcDbLine
 10
2711.4324523682
 20
6783.8666584171
 30
0.0
 11
2711.4324523682
 21
6784.2202118077
 31
0.0
  0
LINE
  5
92
330
1F
100
AcDbEntity
  8
0
  6
Continuous
 62
     7
370
    25
100
AcDbLine
 10
2703.9324523682
 20
6784.2202118077
 30
0.0
 11
2703.9324523682
 21
6783.8666584171
 31
0.0
  0
LINE
  5
93
330
1F
100
AcDbEntity
  8
0
  6
Continuous
 62
     7
370
    25
100
AcDbLine
 10
2722.6824523682
 20
6737.8680159617
 30
0.0
 11
2722.4409709116
 21
6738.2862741135
 31
0.0
  0
LINE
  5
94
330
1F
100
AcDbEntity
  8
0
  6
Continuous
 62
     7
370
    25
100
AcDbLine
 10
2692.9239338247
 20
6738.2862741135
 30
0.0
 11
2692.6824523682
 21
6737.8680159617
 31
0.0
  0
LINE
  5
95
330
1F
100
AcDbEntity
  8
0
  6
Continuous
 62
     7
370
    25
100
AcDbLine
 10
2722.6824523682
 20
6736.8378524948
 30
0.0
 11
2722.6824523682
 21
6737.8680159617
 31
0.0
  0
LINE
  5
96
330
1F
100
AcDbEntity
  8
0
  6
Continuous
 62
     7
370
    25
100
AcDbLine
 10
2692.6824523682
 20
6737.8680159617
 30
0.0
 11
2692.6824523682
 21
6736.8378524948
 31
0.0
  0
LINE
  5
97
330
1F
100
AcDbEntity
  8
0
  6
Continuous
 62
     7
370
    25
100
AcDbLine
 10
2722.4409709116
 20
6738.2862741135
 30
0.0
 11
2720.3824523682
 21
6738.8378524948
 31
0.0
  0
LINE
  5
98
330
1F
100
AcDbEntity
  8
0
  6
Continuous
 62
     7
370
    25
100
AcDbLine
 10
2694.9824523682
 20
6738.8378524948
 30
0.0
 11
2692.9239338247
 21
6738.2862741135
 31
0.0
  0
LINE
  5
99
330
1F
100
AcDbEntity
  8
0
  6
Continuous
 62
     7
370
    25
100
AcDbLine
 10
2701.4324523682
 20
6815.8378524948
 30
0.0
 11
2713.9324523682
 21
6815.8378524948
 31
0.0
  0
LINE
  5
9A
330
1F
100
AcDbEntity
  8
0
  6
Continuous
 62
     7
370
    25
100
AcDbLine
 10
2714.6824523682
 20
6815.0878524948
 30
0.0
 11
2700.6824523682
 21
6815.0878524948
 31
0.0
  0
LINE
  5
9B
330
1F
100
AcDbEntity
  8
0
  6
Continuous
 62
     7
370
    25
100
AcDbLine
 10
2695.2324523682
 20
6813.4878524948
 30
0.0
 11
2720.1324523682
 21
6813.4878524948
 31
0.0
  0
LINE
  5
9C
330
1F
100
AcDbEntity
  8
0
  6
Continuous
 62
     7
370
    25
100
AcDbLine
 10
2695.3824523682
 20
6813.3378524948
 30
0.0
 11
2719.9824523682
 21
6813.3378524948
 31
0.0
  0
LINE
  5
9D
330
1F
100
AcDbEntity
  8
0
  6
Continuous
 62
     7
370
    25
100
AcDbLine
 10
2695.2324523682
 20
6814.3378524948
 30
0.0
 11
2720.1324523682
 21
6814.3378524948
 31
0.0
  0
LINE
  5
9E
330
1F
100
AcDbEntity
  8
0
  6
Continuous
 62
     7
370
    25
100
AcDbLine
 10
2695.7324523682
 20
6814.8378524948
 30
0.0
 11
2719.6324523682
 21
6814.8378524948
 31
0.0
  0
LINE
  5
9F
330
1F
100
AcDbEntity
  8
0
  6
Continuous
 62
     7
370
    25
100
AcDbLine
 10
2707.6824523682
 20
6813.2378524948
 30
0.0
 11
2695.3074523682
 21
6813.2378524948
 31
0.0
  0
LINE
  5
A0
330
1F
100
AcDbEntity
  8
0
  6
Continuous
 62
     7
370
    25
100
AcDbLine
 10
2720.0574523682
 20
6813.2378524948
 30
0.0
 11
2707.6824523682
 21
6813.2378524948
 31
0.0
  0
LINE
  5
A1
330
1F
100
AcDbEntity
  8
0
  6
Continuous
 62
     7
370
    25
100
AcDbLine
 10
2695.3074523682
 20
6738.9378524948
 30
0.0
 11
2720.0574523682
 21
6738.9378524948
 31
0.0
  0
SPLINE
  5
A2
330
1F
100
AcDbEntity
  8
0
  6
Continuous
 62
     7
370
    25
100
AcDbSpline
210
0.0
220
0.0
230
1.0
 70
     8
 71
     3
 72
    20
 73
    16
 74
     0
 42
0.00000001
 43
0.00000001
 40
0.0
 40
0.0
 40
0.0
 40
0.0
 40
0.0776334320190982
 40
0.1552920815712931
 40
0.2326476015989269
 40
0.3100426434788063
 40
0.3929703812748497
 40
0.4759103198400766
 40
0.5676591513837178
 40
0.659316660059844
 40
0.7310264934276637
 40
0.8027017951592275
 40
0.8744546835901458
 40
0.946241268445475
 40
1.0
 40
1.0
 40
1.0
 40
1.0
 10
2707.682452368173
 20
6778.587852494842
 30
0.0
 10
2707.320288665333
 20
6778.604576368976
 30
0.0
 10
2706.595843618648
 20
6778.638029549631
 30
0.0
 10
2705.543855149652
 20
6778.895292545634
 30
0.0
 10
2704.556928602445
 20
6779.295193954161
 30
0.0
 10
2703.631616960679
 20
6779.844666052909
 30
0.0
 10
2702.79203617994
 20
6780.539488839562
 30
0.0
 10
2702.030918239047
 20
6781.401762883051
 30
0.0
 10
2701.400860788425
 20
6782.419513707379
 30
0.0
 10
2700.967944924924
 20
6783.501559241046
 30
0.0
 10
2700.735206202987
 20
6784.564786928327
 30
0.0
 10
2700.655774724156
 20
6785.569352036093
 30
0.0
 10
2700.736604096983
 20
6786.568685118474
 30
0.0
 10
2700.895376276659
 20
6787.479775781654
 30
0.0
 10
2701.149942825238
 20
6787.98821419602
 30
0.0
 10
2701.258948681763
 20
6788.205928444639
 30
0.0
  0
SPLINE
  5
A3
330
1F
100
AcDbEntity
  8
0
  6
Continuous
 62
     7
370
    25
100
AcDbSpline
210
0.0
220
0.0
230
1.0
 70
     8
 71
     3
 72
    20
 73
    16
 74
     0
 42
0.00000001
 43
0.00000001
 40
0.0
 40
0.0
 40
0.0
 40
0.0
 40
0.0422668825278761
 40
0.1258176188480509
 40
0.1916406470418981
 40
0.2574290731498211
 40
0.3233179666531503
 40
0.3892356639749868
 40
0.5192101313791982
 40
0.594383225836459
 40
0.6695630544317633
 40
0.7535671444572917
 40
0.8375074161536237
 40
0.9187755438901317
 40
1.0
 40
1.0
 40
1.0
 40
1.0
 10
2713.547859007952
 20
6789.358168999545
 30
0.0
 10
2713.663942951056
 20
6789.186849745422
 30
0.0
 10
2714.009494939618
 20
6788.676876467826
 30
0.0
 10
2714.357737377248
 20
6787.779208752419
 30
0.0
 10
2714.614133183201
 20
6786.722932852172
 30
0.0
 10
2714.705944795555
 20
6785.715824789246
 30
0.0
 10
2714.649821729171
 20
6784.705168514763
 30
0.0
 10
2714.390087999215
 20
6783.401493331464
 30
0.0
 10
2713.844947372859
 20
6782.151557589078
 30
0.0
 10
2713.041200967511
 20
6781.040392318019
 30
0.0
 10
2712.23454377465
 20
6780.226946895457
 30
0.0
 10
2711.259797191085
 20
6779.528940838439
 30
0.0
 10
2710.135739972279
 20
6778.994157014392
 30
0.0
 10
2708.927301928844
 20
6778.654263498292
 30
0.0
 10
2708.097327866916
 20
6778.609985529266
 30
0.0
 10
2707.682452368173
 20
6778.587852494842
 30
0.0
  0
LINE
  5
A4
330
1F
100
AcDbEntity
  8
0
  6
Continuous
 62
     7
370
    25
100
AcDbLine
 10
2703.6902725125
 20
6791.3378524948
 30
0.0
 11
2703.7342724077
 21
6791.3378524948
 31
0.0
  0
LINE
  5
A5
330
1F
100
AcDbEntity
  8
0
  6
Continuous
 62
     7
370
    25
100
AcDbLine
 10
2711.6306323286
 20
6791.3378524948
 30
0.0
 11
2711.6746322238
 21
6791.3378524948
 31
0.0
  0
ARC
  5
A6
330
1F
100
AcDbEntity
  8
0
  6
Continuous
 62
     7
370
    25
100
AcDbCircle
 10
2707.6795002117
 20
6787.0027799793
 30
0.0
 40
6.406897796108818
100
AcDbArc
 50
255.855693961
 51
273.4799239048
  0
ARC
  5
A7
330
1F
100
AcDbEntity
  8
0
  6
Continuous
 62
     7
370
    25
100
AcDbCircle
 10
2707.7128359292
 20
6786.4718748367
 30
0.0
 40
6.227890297325967
100
AcDbArc
 50
273.2728416264
 51
286.8978847609
  0
LINE
  5
A8
330
1F
100
AcDbEntity
  8
0
  6
Continuous
 62
     7
370
    25
100
AcDbLine
 10
2709.5230773078
 20
6780.8664313564
 30
0.0
 11
2709.5230773078
 21
6780.5128779658
 31
0.0
  0
ARC
  5
A9
330
1F
100
AcDbEntity
  8
0
  6
Continuous
 62
     7
370
    25
100
AcDbCircle
 10
2708.0812250413
 20
6785.6901941345
 30
0.0
 40
5.03464251931659
100
AcDbArc
 50
286.6417277582
 51
305.3861985819
  0
ARC
  5
AA
330
1F
100
AcDbEntity
  8
0
  6
Continuous
 62
     7
370
    25
100
AcDbCircle
 10
2709.1301278151
 20
6783.9450515971
 30
0.0
 40
3.288279202504639
100
AcDbArc
 50
309.332748952
 51
330.2215658006
  0
LINE
  5
AB
330
1F
100
AcDbEntity
  8
0
  6
Continuous
 62
     7
370
    25
100
AcDbLine
 10
2711.9841978053
 20
6782.6654899872
 30
0.0
 11
2711.9841978053
 21
6782.3119365966
 31
0.0
  0
ARC
  5
AC
330
1F
100
AcDbEntity
  8
0
  6
Continuous
 62
     7
370
    25
100
AcDbCircle
 10
2709.8867639737
 20
6783.8715217664
 30
0.0
 40
2.419450625784017
100
AcDbArc
 50
330.1009477631
 51
6.3605162396
  0
LINE
  5
AD
330
1F
100
AcDbEntity
  8
0
  6
Continuous
 62
     7
370
    25
100
AcDbLine
 10
2712.2913216683
 20
6784.1395583753
 30
0.0
 11
2712.2913216683
 21
6783.7860049847
 31
0.0
  0
ARC
  5
AE
330
1F
100
AcDbEntity
  8
0
  6
Continuous
 62
     7
370
    25
100
AcDbCircle
 10
2709.7746185649
 20
6783.4701361824
 30
0.0
 40
2.536447833291766
100
AcDbArc
 50
7.1537274672
 51
32.0099799122
  0
LINE
  5
AF
330
1F
100
AcDbEntity
  8
0
  6
Continuous
 62
     7
370
    25
100
AcDbLine
 10
2711.9254141676
 20
6785.1681767936
 30
0.0
 11
2711.9254141676
 21
6784.814623403
 31
0.0
  0
ARC
  5
B0
330
1F
100
AcDbEntity
  8
0
  6
Continuous
 62
     7
370
    25
100
AcDbCircle
 10
2709.0280000027
 20
6783.3456685258
 30
0.0
 40
3.422943941860277
100
AcDbArc
 50
32.1703853282
 51
52.8521803245
  0
LINE
  5
B1
330
1F
100
AcDbEntity
  8
0
  6
Continuous
 62
     7
370
    25
100
AcDbLine
 10
2710.6685151458
 20
6786.327865057
 30
0.0
 11
2710.6685151458
 21
6786.0105090876
 31
0.0
  0
ARC
  5
B2
330
1F
100
AcDbEntity
  8
0
  6
Continuous
 62
     7
370
    25
100
AcDbCircle
 10
2707.9878847173
 20
6781.4657827755
 30
0.0
 40
5.276392398715294
100
AcDbArc
 50
59.4664851876
 51
74.6889829522
  0
LINE
  5
B3
330
1F
100
AcDbEntity
  8
0
  6
Continuous
 62
     7
370
    25
100
AcDbLine
 10
2709.3811610524
 20
6786.8204232586
 30
0.0
 11
2709.3811610524
 21
6786.5548983961
 31
0.0
  0
LINE
  5
B4
330
1F
100
AcDbEntity
  8
0
  6
Continuous
 62
     7
370
    25
100
AcDbLine
 10
2707.2965135462
 20
6787.0211935513
 30
0.0
 11
2707.2965135462
 21
6786.7720677623
 31
0.0
  0
ARC
  5
B5
330
1F
100
AcDbEntity
  8
0
  6
Continuous
 62
     7
370
    25
100
AcDbCircle
 10
2707.6520688071
 20
6780.5543352163
 30
0.0
 40
6.227890297388528
100
AcDbArc
 50
93.2728416265
 51
106.8978847608
  0
LINE
  5
B6
330
1F
100
AcDbEntity
  8
0
  6
Continuous
 62
     7
370
    25
100
AcDbLine
 10
2705.8418274285
 20
6786.7822347885
 30
0.0
 11
2705.8418274285
 21
6786.5133320872
 31
0.0
  0
LINE
  5
B7
330
1F
100
AcDbEntity
  8
0
  6
Continuous
 62
     7
370
    25
100
AcDbLine
 10
2704.1505896743
 20
6785.9781236562
 30
0.0
 11
2704.2698797672
 21
6786.0740293922
 31
0.0
  0
LINE
  5
B8
330
1F
100
AcDbEntity
  8
0
  6
Continuous
 62
     7
370
    25
100
AcDbLine
 10
2704.1505896743
 20
6785.9781236562
 30
0.0
 11
2704.1505896743
 21
6785.6245702656
 31
0.0
  0
ARC
  5
B9
330
1F
100
AcDbEntity
  8
0
  6
Continuous
 62
     7
370
    25
100
AcDbCircle
 10
2706.2347769212
 20
6783.081158456
 30
0.0
 40
3.288279202463907
100
AcDbArc
 50
129.3327489519
 51
150.2215658007
  0
LINE
  5
BA
330
1F
100
AcDbEntity
  8
0
  6
Continuous
 62
     7
370
    25
100
AcDbLine
 10
2703.380706931
 20
6785.067826847
 30
0.0
 11
2703.380706931
 21
6784.7142734564
 31
0.0
  0
ARC
  5
BB
330
1F
100
AcDbEntity
  8
0
  6
Continuous
 62
     7
370
    25
100
AcDbCircle
 10
2705.4781407627
 20
6783.8617950679
 30
0.0
 40
2.419450625769153
100
AcDbArc
 50
150.1009477629
 51
186.3605162397
  0
LINE
  5
BC
330
1F
100
AcDbEntity
  8
0
  6
Continuous
 62
     7
370
    25
100
AcDbLine
 10
2703.073583068
 20
6783.593758459
 30
0.0
 11
2703.073583068
 21
6783.2402050684
 31
0.0
  0
ARC
  5
BD
330
1F
100
AcDbEntity
  8
0
  6
Continuous
 62
     7
370
    25
100
AcDbCircle
 10
2705.5902861715
 20
6783.5560738707
 30
0.0
 40
2.536447833286581
100
AcDbArc
 50
187.1537274672
 51
212.0099799122
  0
ARC
  5
BE
330
1F
100
AcDbEntity
  8
0
  6
Continuous
 62
     7
370
    25
100
AcDbCircle
 10
2706.5913192191
 20
6784.6413730018
 30
0.0
 40
3.781205988627076
100
AcDbArc
 50
218.817266333
 51
239.9242682988
  0
LINE
  5
BF
330
1F
100
AcDbEntity
  8
0
  6
Continuous
 62
     7
370
    25
100
AcDbLine
 10
2704.6963895906
 20
6781.3692543561
 30
0.0
 11
2704.6963895906
 21
6781.0157009655
 31
0.0
  0
ARC
  5
C0
330
1F
100
AcDbEntity
  8
0
  6
Continuous
 62
     7
370
    25
100
AcDbCircle
 10
2707.377020019
 20
6785.5604272775
 30
0.0
 40
5.2763923987291
100
AcDbArc
 50
239.4664851876
 51
254.6889829521
  0
ARC
  5
C1
330
1F
100
AcDbEntity
  8
0
  6
Continuous
 62
     7
370
    25
100
AcDbCircle
 10
2705.7541290047
 20
6783.8682061352
 30
0.0
 40
2.191327675908218
100
AcDbArc
 50
142.8196034424
 51
198.9901645252
  0
ARC
  5
C2
330
1F
100
AcDbEntity
  8
0
  6
Continuous
 62
     7
370
    25
100
AcDbCircle
 10
2707.1728943444
 20
6782.5522476863
 30
0.0
 40
4.144248725053528
100
AcDbArc
 50
108.8173383061
 51
132.5916851767
  0
ARC
  5
C3
330
1F
100
AcDbEntity
  8
0
  6
Continuous
 62
     7
370
    25
100
AcDbCircle
 10
2707.6874445429
 20
6781.1088796084
 30
0.0
 40
5.675127095487074
100
AcDbArc
 50
74.0073090731
 51
93.3242452229
  0
LWPOLYLINE
  5
C4
330
1F
100
AcDbEntity
  8
0
  6
Continuous
 62
     7
370
    25
100
AcDbPolyline
 90
       19
 70
   128
 43
0.0
 10
2710.5995463262
 20
6785.9289614793
 10
2710.9277106113
 20
6785.6672033257
 10
2711.386210912
 20
6785.1507529715
 10
2711.6828391918
 20
6784.5781815234
 10
2711.8046313713
 20
6783.9745131014
 10
2711.7462645481
 20
6783.3661309121
 10
2711.5102896322
 20
6782.7796241766
 10
2711.1070198599
 20
6782.2406260536
 10
2710.5540800553
 20
6781.7726933474
 10
2709.8756363412
 20
6781.3962769627
 10
2709.1013399634
 20
6781.1278281018
 10
2708.2650313891
 20
6780.979079268
 10
2707.403261316
 20
6780.9565314992
 10
2706.5536932317
 20
6781.0611702411
 10
2705.753457338
 20
6781.2884222785
 10
2705.0375277835
 20
6781.6283556068
 10
2704.437194125
 20
6782.0661135086
 10
2703.9786938243
 20
6782.5825638628
 10
2703.6820655446
 20
6783.1551353108
  0
LINE
  5
C5
330
1F
100
AcDbEntity
  8
0
  6
Continuous
 62
     7
370
    25
100
AcDbLine
 10
2711.7665927782
 20
6782.7575096195
 30
0.0
 11
2711.9841978053
 21
6782.6654899872
 31
0.0
  0
ARC
  5
C6
330
1F
100
AcDbEntity
  8
0
  6
Continuous
 62
     7
370
    25
100
AcDbCircle
 10
2709.0502871724
 20
6784.2741105104
 30
0.0
 40
3.111011797959796
100
AcDbArc
 50
308.7303444164
 51
330.8239703362
  0
LINE
  5
C7
330
1F
100
AcDbEntity
  8
0
  6
Continuous
 62
     7
370
    25
100
AcDbLine
 10
2709.5230773078
 20
6780.8664313564
 30
0.0
 11
2709.4612269498
 21
6781.0403015759
 31
0.0
  0
ARC
  5
C8
330
1F
100
AcDbEntity
  8
0
  6
Continuous
 62
     7
370
    25
100
AcDbCircle
 10
2707.7108369619
 20
6786.662796775
 30
0.0
 40
5.888660066062461
100
AcDbArc
 50
272.8783648798
 51
287.2923615075
  0
ARC
  5
C9
330
1F
100
AcDbEntity
  8
0
  6
Continuous
 62
     7
370
    25
100
AcDbCircle
 10
2707.39434023
 20
6785.8010689483
 30
0.0
 40
4.989437349098687
100
AcDbArc
 50
239.0259192753
 51
255.1295488644
  0
LINE
  5
CA
330
1F
100
AcDbEntity
  8
0
  6
Continuous
 62
     7
370
    25
100
AcDbLine
 10
2704.8265250025
 20
6781.5231243463
 30
0.0
 11
2704.6963895906
 21
6781.3692543561
 31
0.0
  0
ARC
  5
CB
330
1F
100
AcDbEntity
  8
0
  6
Continuous
 62
     7
370
    25
100
AcDbCircle
 10
2705.7052839742
 20
6783.9068002945
 30
0.0
 40
2.400962672882745
100
AcDbArc
 50
186.4402066723
 51
212.723500707
  0
LINE
  5
CC
330
1F
100
AcDbEntity
  8
0
  6
Continuous
 62
     7
370
    25
100
AcDbLine
 10
2703.073583068
 20
6783.593758459
 30
0.0
 11
2703.3194726905
 21
6783.6374932666
 31
0.0
  0
LINE
  5
CD
330
1F
100
AcDbEntity
  8
0
  6
Continuous
 62
     7
370
    25
100
AcDbLine
 10
2704.3681947014
 20
6785.886104024
 30
0.0
 11
2704.1505896743
 21
6785.9781236562
 31
0.0
  0
LINE
  5
CE
330
1F
100
AcDbEntity
  8
0
  6
Continuous
 62
     7
370
    25
100
AcDbLine
 10
2707.3329815909
 20
6787.0231042535
 30
0.0
 11
2707.3583639042
 21
6786.9517509334
 31
0.0
  0
LINE
  5
CF
330
1F
100
AcDbEntity
  8
0
  6
Continuous
 62
     7
370
    25
100
AcDbLine
 10
2709.2510256405
 20
6786.7545817964
 30
0.0
 11
2709.3197729206
 21
6786.83586746
 31
0.0
  0
LINE
  5
D0
330
1F
100
AcDbEntity
  8
0
  6
Continuous
 62
     7
370
    25
100
AcDbLine
 10
2711.9254141676
 20
6785.1681767936
 30
0.0
 11
2711.6795245451
 21
6785.124441986
 31
0.0
  0
LINE
  5
D1
330
1F
100
AcDbEntity
  8
0
  6
Continuous
 62
     7
370
    25
100
AcDbLine
 10
2707.2965135462
 20
6786.7720677623
 30
0.0
 11
2707.3583639042
 21
6786.5981975428
 31
0.0
  0
ARC
  5
D2
330
1F
100
AcDbEntity
  8
0
  6
Continuous
 62
     7
370
    25
100
AcDbCircle
 10
2707.6540677744
 20
6780.7169666687
 30
0.0
 40
5.888660066058914
100
AcDbArc
 50
92.8783648798
 51
107.2923615075
  0
LINE
  5
D3
330
1F
100
AcDbEntity
  8
0
  6
Continuous
 62
     7
370
    25
100
AcDbLine
 10
2705.8418274285
 20
6786.5133320872
 30
0.0
 11
2705.9036777866
 21
6786.3394618678
 31
0.0
  0
LINE
  5
D4
330
1F
100
AcDbEntity
  8
0
  6
Continuous
 62
     7
370
    25
100
AcDbLine
 10
2707.3583639042
 20
6786.9517509334
 30
0.0
 11
2707.3583639042
 21
6786.5981975428
 31
0.0
  0
LINE
  5
D5
330
1F
100
AcDbEntity
  8
0
  6
Continuous
 62
     7
370
    25
100
AcDbLine
 10
2710.5383797339
 20
6785.8566390973
 30
0.0
 11
2710.6685151458
 21
6786.0105090876
 31
0.0
  0
ARC
  5
D6
330
1F
100
AcDbEntity
  8
0
  6
Continuous
 62
     7
370
    25
100
AcDbCircle
 10
2707.9705645063
 20
6781.5786944953
 30
0.0
 40
4.989437349156447
100
AcDbArc
 50
59.0259192755
 51
75.1295488644
  0
LINE
  5
D7
330
1F
100
AcDbEntity
  8
0
  6
Continuous
 62
     7
370
    25
100
AcDbLine
 10
2709.2510256405
 20
6786.4010284058
 30
0.0
 11
2709.3811610524
 21
6786.5548983961
 31
0.0
  0
LINE
  5
D8
330
1F
100
AcDbEntity
  8
0
  6
Continuous
 62
     7
370
    25
100
AcDbLine
 10
2703.6820655446
 20
6783.5086887014
 30
0.0
 11
2703.5650350952
 21
6784.0434351124
 31
0.0
  0
ARC
  5
D9
330
1F
100
AcDbEntity
  8
0
  6
Continuous
 62
     7
370
    25
100
AcDbCircle
 10
2709.0026098996
 20
6784.4812216875
 30
0.0
 40
2.831310499931008
100
AcDbArc
 50
296.8549876395
 51
351.1050504052
  0
ARC
  5
DA
330
1F
100
AcDbEntity
  8
0
  6
Continuous
 62
     7
370
    25
100
AcDbCircle
 10
2706.5736242568
 20
6784.7082590873
 30
0.0
 40
3.130508089282791
100
AcDbArc
 50
202.5312406152
 51
241.5712187784
  0
LINE
  5
DB
330
1F
100
AcDbEntity
  8
0
  6
Continuous
 62
     7
370
    25
100
AcDbLine
 10
2709.2510256405
 20
6786.7545817964
 30
0.0
 11
2709.2510256405
 21
6786.4010284058
 31
0.0
  0
LWPOLYLINE
  5
DC
330
1F
100
AcDbEntity
  8
0
  6
Continuous
 62
     7
370
    25
100
AcDbPolyline
 90
       30
 70
   128
 43
0.0
 10
2704.045737074
 20
6783.2198192296
 10
2703.9341132154
 20
6783.7877483558
 10
2703.9977575295
 20
6784.3593672288
 10
2704.2336940791
 20
6784.9079475854
 10
2704.6308907333
 20
6785.4078384177
 10
2705.1707750179
 20
6785.8356653862
 10
2705.828102544
 20
6786.1714237771
 10
2706.5721374068
 20
6786.3994139014
 10
2707.3680893632
 20
6786.5089751942
 10
2708.1787405843
 20
6786.4949846913
 10
2708.96618592
 20
6786.3580965729
 10
2709.6936053016
 20
6786.1047115754
 10
2710.3269854073
 20
6785.7466776996
 10
2710.8367100872
 20
6785.3007362117
 10
2711.198945182
 20
6784.7877388399
 10
2711.396752981
 20
6784.2316727713
 10
2711.4208842115
 20
6783.6585390372
 10
2711.270210524
 20
6783.095136734
 10
2710.9517772527
 20
6782.5678099272
 10
2710.4804739833
 20
6782.1012158322
 10
2709.878338333
 20
6781.7171718704
 10
2709.1735254955
 20
6781.4336355104
 10
2708.3989917358
 20
6781.2638645975
 10
2707.5909533917
 20
6781.2157974308
 10
2706.787193438
 20
6781.2916815776
 10
2706.0252947968
 20
6781.4879687796
 10
2705.3408830019
 20
6781.7954808652
 10
2704.7659603881
 20
6782.1998389113
 10
2704.3274096979
 20
6782.6821355849
 10
2704.045737074
 20
6783.2198192296
  0
ARC
  5
DD
330
1F
100
AcDbEntity
  8
0
  6
Continuous
 62
     7
370
    25
100
AcDbCircle
 10
2706.3009136116
 20
6784.0963305003
 30
0.0
 40
2.371698808826012
100
AcDbArc
 50
120.8902227384
 51
177.0058982429
  0
ARC
  5
DE
330
1F
100
AcDbEntity
  8
0
  6
Continuous
 62
     7
370
    25
100
AcDbCircle
 10
2709.1783619791
 20
6784.1362387769
 30
0.0
 40
2.255653996542895
100
AcDbArc
 50
2.133488689
 51
51.6201446939
  0
LINE
  5
DF
330
1F
100
AcDbEntity
  8
0
  6
Continuous
 62
     7
370
    25
100
AcDbLine
 10
2704.3681947014
 20
6785.886104024
 30
0.0
 11
2704.3681947014
 21
6785.5325506334
 31
0.0
  0
LINE
  5
E0
330
1F
100
AcDbEntity
  8
0
  6
Continuous
 62
     7
370
    25
100
AcDbLine
 10
2704.3681947014
 20
6785.5325506334
 30
0.0
 11
2704.1505896743
 21
6785.6245702656
 31
0.0
  0
ARC
  5
E1
330
1F
100
AcDbEntity
  8
0
  6
Continuous
 62
     7
370
    25
100
AcDbCircle
 10
2706.314617564
 20
6783.1056529332
 30
0.0
 40
3.111011797959889
100
AcDbArc
 50
128.7303444164
 51
150.8239703361
  0
LINE
  5
E2
330
1F
100
AcDbEntity
  8
0
  6
Continuous
 62
     7
370
    25
100
AcDbLine
 10
2703.5983119581
 20
6784.6222538242
 30
0.0
 11
2703.380706931
 21
6784.7142734564
 31
0.0
  0
LINE
  5
E3
330
1F
100
AcDbEntity
  8
0
  6
Continuous
 62
     7
370
    25
100
AcDbLine
 10
2711.9254141676
 20
6784.814623403
 30
0.0
 11
2711.6795245451
 21
6784.7708885954
 31
0.0
  0
LINE
  5
E4
330
1F
100
AcDbEntity
  8
0
  6
Continuous
 62
     7
370
    25
100
AcDbLine
 10
2712.2913216683
 20
6783.7860049847
 30
0.0
 11
2712.0454320458
 21
6783.7422701771
 31
0.0
  0
ARC
  5
E5
330
1F
100
AcDbEntity
  8
0
  6
Continuous
 62
     7
370
    25
100
AcDbCircle
 10
2709.6596207622
 20
6783.4729631491
 30
0.0
 40
2.400962672876418
100
AcDbArc
 50
6.4402066723
 51
32.7235007071
  0
LINE
  5
E6
330
1F
100
AcDbEntity
  8
0
  6
Continuous
 62
     7
370
    25
100
AcDbLine
 10
2711.6795245451
 20
6785.124441986
 30
0.0
 11
2711.6795245451
 21
6784.7708885954
 31
0.0
  0
LINE
  5
E7
330
1F
100
AcDbEntity
  8
0
  6
Continuous
 62
     7
370
    25
100
AcDbLine
 10
2703.073583068
 20
6783.2402050684
 30
0.0
 11
2703.3194726905
 21
6783.283939876
 31
0.0
  0
ARC
  5
E8
330
1F
100
AcDbEntity
  8
0
  6
Continuous
 62
     7
370
    25
100
AcDbCircle
 10
2705.7052839742
 20
6783.553246904
 30
0.0
 40
2.400962672881491
100
AcDbArc
 50
186.4402066723
 51
212.7235007071
  0
LINE
  5
E9
330
1F
100
AcDbEntity
  8
0
  6
Continuous
 62
     7
370
    25
100
AcDbLine
 10
2703.4394905687
 20
6782.2115866501
 30
0.0
 11
2703.6853801912
 21
6782.2553214577
 31
0.0
  0
LINE
  5
EA
330
1F
100
AcDbEntity
  8
0
  6
Continuous
 62
     7
370
    25
100
AcDbLine
 10
2703.3194726905
 20
6783.6374932666
 30
0.0
 11
2703.3194726905
 21
6783.283939876
 31
0.0
  0
LINE
  5
EB
330
1F
100
AcDbEntity
  8
0
  6
Continuous
 62
     7
370
    25
100
AcDbLine
 10
2703.6853801912
 20
6782.6088748483
 30
0.0
 11
2703.6853801912
 21
6782.2553214577
 31
0.0
  0
LINE
  5
EC
330
1F
100
AcDbEntity
  8
0
  6
Continuous
 62
     7
370
    25
100
AcDbLine
 10
2711.7665927782
 20
6782.7575096195
 30
0.0
 11
2711.7665927782
 21
6782.4039562289
 31
0.0
  0
LINE
  5
ED
330
1F
100
AcDbEntity
  8
0
  6
Continuous
 62
     7
370
    25
100
AcDbLine
 10
2711.7665927782
 20
6782.4039562289
 30
0.0
 11
2711.9841978053
 21
6782.3119365966
 31
0.0
  0
ARC
  5
EE
330
1F
100
AcDbEntity
  8
0
  6
Continuous
 62
     7
370
    25
100
AcDbCircle
 10
2709.0502871724
 20
6783.9205571198
 30
0.0
 40
3.111011797957307
100
AcDbArc
 50
308.7303444164
 51
330.8239703361
  0
LINE
  5
EF
330
1F
100
AcDbEntity
  8
0
  6
Continuous
 62
     7
370
    25
100
AcDbLine
 10
2710.996710035
 20
6781.4936594197
 30
0.0
 11
2711.214315062
 21
6781.4016397874
 31
0.0
  0
LINE
  5
F0
330
1F
100
AcDbEntity
  8
0
  6
Continuous
 62
     7
370
    25
100
AcDbLine
 10
2710.996710035
 20
6781.8472128103
 30
0.0
 11
2710.996710035
 21
6781.4936594197
 31
0.0
  0
LINE
  5
F1
330
1F
100
AcDbEntity
  8
0
  6
Continuous
 62
     7
370
    25
100
AcDbLine
 10
2704.8265250025
 20
6781.5231243463
 30
0.0
 11
2704.8265250025
 21
6781.1695709558
 31
0.0
  0
LINE
  5
F2
330
1F
100
AcDbEntity
  8
0
  6
Continuous
 62
     7
370
    25
100
AcDbLine
 10
2706.1138790958
 20
6780.9787350378
 30
0.0
 11
2706.1138790958
 21
6780.6251816473
 31
0.0
  0
ARC
  5
F3
330
1F
100
AcDbEntity
  8
0
  6
Continuous
 62
     7
370
    25
100
AcDbCircle
 10
2707.39434023
 20
6785.4475155578
 30
0.0
 40
4.989437349099566
100
AcDbArc
 50
239.0259192753
 51
255.1295488644
  0
LINE
  5
F4
330
1F
100
AcDbEntity
  8
0
  6
Continuous
 62
     7
370
    25
100
AcDbLine
 10
2704.8265250025
 20
6781.1695709558
 30
0.0
 11
2704.6963895906
 21
6781.0157009655
 31
0.0
  0
LINE
  5
F5
330
1F
100
AcDbEntity
  8
0
  6
Continuous
 62
     7
370
    25
100
AcDbLine
 10
2706.1138790958
 20
6780.6251816473
 30
0.0
 11
2705.9837436839
 21
6780.471311657
 31
0.0
  0
LINE
  5
F6
330
1F
100
AcDbEntity
  8
0
  6
Continuous
 62
     7
370
    25
100
AcDbLine
 10
2709.4612269498
 20
6781.0403015759
 30
0.0
 11
2709.4612269498
 21
6780.6867481853
 31
0.0
  0
LINE
  5
F7
330
1F
100
AcDbEntity
  8
0
  6
Continuous
 62
     7
370
    25
100
AcDbLine
 10
2709.5230773078
 20
6780.5128779658
 30
0.0
 11
2709.4612269498
 21
6780.6867481853
 31
0.0
  0
ARC
  5
F8
330
1F
100
AcDbEntity
  8
0
  6
Continuous
 62
     7
370
    25
100
AcDbCircle
 10
2707.7108369619
 20
6786.3092433843
 30
0.0
 40
5.88866006599027
100
AcDbArc
 50
272.8783648797
 51
287.2923615076
  0
LINE
  5
F9
330
1F
100
AcDbEntity
  8
0
  6
Continuous
 62
     7
370
    25
100
AcDbLine
 10
2708.0065408321
 20
6780.7815659009
 30
0.0
 11
2708.0065408321
 21
6780.4280125103
 31
0.0
  0
LINE
  5
FA
330
1F
100
AcDbEntity
  8
0
  6
Continuous
 62
     7
370
    25
100
AcDbLine
 10
2708.0683911901
 20
6780.2541422908
 30
0.0
 11
2708.0065408321
 21
6780.4280125103
 31
0.0
  0
LINE
  5
FB
330
1F
100
AcDbEntity
  8
0
  6
Continuous
 62
     7
370
    25
100
AcDbLine
 10
2704.3915558338
 20
6791.7500364131
 30
0.0
 11
2704.3915558338
 21
6791.7377000539
 31
0.0
  0
LINE
  5
FC
330
1F
100
AcDbEntity
  8
0
  6
Continuous
 62
     7
370
    25
100
AcDbLine
 10
2704.0296017669
 20
6791.5378524948
 30
0.0
 11
2704.0426549837
 21
6791.5378524948
 31
0.0
  0
ARC
  5
FD
330
1F
100
AcDbEntity
  8
0
  6
Continuous
 62
     7
370
    25
100
AcDbCircle
 10
2707.6824523682
 20
6785.5878524948
 30
0.0
 40
6.47500000000011
100
AcDbArc
 50
26.3603643512
 51
153.6396356488
  0
LINE
  5
FE
330
1F
100
AcDbEntity
  8
0
  6
Continuous
 62
     7
370
    25
100
AcDbLine
 10
2701.8807284864
 20
6788.4628524948
 30
0.0
 11
2701.1242513953
 21
6787.9628524948
 31
0.0
  0
ARC
  5
FF
330
1F
100
AcDbEntity
  8
0
  6
Continuous
 62
     7
370
    25
100
AcDbCircle
 10
2707.6824523682
 20
6785.5878524948
 30
0.0
 40
6.974999999999929
100
AcDbArc
 50
19.9074488975
 51
160.0925511025
  0
LINE
  5
100
330
1F
100
AcDbEntity
  8
0
  6
Continuous
 62
     7
370
    25
100
AcDbLine
 10
2714.240653341
 20
6787.9628524948
 30
0.0
 11
2713.4841762499
 21
6788.4628524948
 31
0.0
  0
ARC
  5
101
330
1F
100
AcDbEntity
  8
0
  6
Continuous
 62
     7
370
    25
100
AcDbCircle
 10
2707.6824523682
 20
6785.5878524948
 30
0.0
 40
6.974999999999929
100
AcDbArc
 50
160.0925511025
 51
19.9074488975
  0
LINE
  5
102
330
1F
100
AcDbEntity
  8
0
  6
Continuous
 62
     7
370
    25
100
AcDbLine
 10
2701.8807284864
 20
6788.4628524948
 30
0.0
 11
2713.4841762499
 21
6788.4628524948
 31
0.0
  0
LWPOLYLINE
  5
103
330
1F
100
AcDbEntity
  8
0
  6
Continuous
 62
     7
370
    25
100
AcDbPolyline
 90
       34
 70
   128
 43
0.0
 10
2707.6824523682
 20
6779.9944178445
 10
2708.6241997045
 20
6780.0580051058
 10
2709.5319098385
 20
6780.2464686804
 10
2710.3727757607
 20
6780.5529970037
 10
2711.116406386
 20
6780.9665113434
 10
2711.735924966
 20
6781.472066214
 10
2712.2089404851
 20
6782.0513895451
 10
2712.51835693
 20
6782.6835430821
 10
2712.6529911842
 20
6783.3456791492
 10
2712.6079772149
 20
6784.0138664238
 10
2712.3849419444
 20
6784.6639548767
 10
2711.9919464484
 20
6785.2724486176
 10
2711.4431946081
 20
6785.8173550971
 10
2710.7585197446
 20
6786.2789799754
 10
2709.9626677916
 20
6786.6406389267
 10
2709.0844029121
 20
6786.8892606541
 10
2708.1554678873
 20
6787.0158593206
 10
2707.2094368491
 20
6787.0158593206
 10
2706.2805018242
 20
6786.8892606541
 10
2705.4022369447
 20
6786.6406389267
 10
2704.6063849917
 20
6786.2789799754
 10
2703.9217101283
 20
6785.8173550971
 10
2703.3729582879
 20
6785.2724486176
 10
2702.9799627919
 20
6784.6639548767
 10
2702.7569275214
 20
6784.0138664238
 10
2702.7119135522
 20
6783.3456791492
 10
2702.8465478064
 20
6782.6835430821
 10
2703.1559642513
 20
6782.0513895451
 10
2703.6289797703
 20
6781.472066214
 10
2704.2484983503
 20
6780.9665113434
 10
2704.9921289756
 20
6780.5529970037
 10
2705.8329948979
 20
6780.2464686804
 10
2706.7407050318
 20
6780.0580051058
 10
2707.6824523682
 20
6779.9944178445
  0
LINE
  5
104
330
1F
100
AcDbEntity
  8
0
  6
Continuous
 62
     7
370
    25
100
AcDbLine
 10
2707.6824523682
 20
6780.5520953803
 30
0.0
 11
2708.0065408321
 21
6780.5600269803
 31
0.0
  0
LWPOLYLINE
  5
105
330
1F
100
AcDbEntity
  8
0
  6
Continuous
 62
     7
370
    25
100
AcDbPolyline
 90
        3
 70
   128
 43
0.0
 10
2709.5230773078
 20
6780.8183182063
 10
2710.2866878355
 20
6781.110699974
 10
2710.996710035
 20
6781.5226925078
  0
ARC
  5
106
330
1F
100
AcDbEntity
  8
0
  6
Continuous
 62
     7
370
    25
100
AcDbCircle
 10
2709.8231749996
 20
6783.8742711369
 30
0.0
 40
2.534550608221255
100
AcDbArc
 50
328.4984060904
 51
43.643682443
  0
ARC
  5
107
330
1F
100
AcDbEntity
  8
0
  6
Continuous
 62
     7
370
    25
100
AcDbCircle
 10
2705.5556857471
 20
6783.8615139345
 30
0.0
 40
2.55345450597674
100
AcDbArc
 50
136.3653006677
 51
193.5766504873
  0
ARC
  5
108
330
1F
100
AcDbEntity
  8
0
  6
Continuous
 62
     7
370
    25
100
AcDbCircle
 10
2706.6292661539
 20
6784.7109825198
 30
0.0
 40
3.910427044739925
100
AcDbArc
 50
218.9786459319
 51
240.3771989044
  0
LWPOLYLINE
  5
109
330
1F
100
AcDbEntity
  8
0
  6
Continuous
 62
     7
370
    25
100
AcDbPolyline
 90
        3
 70
   128
 43
0.0
 10
2706.1138790958
 20
6780.7431800565
 10
2706.7679664837
 20
6780.6157837797
 10
2707.6824523682
 20
6780.5520953803
  0
LINE
  5
10A
330
1F
100
AcDbEntity
  8
0
  6
Continuous
 62
     7
370
    25
100
AcDbLine
 10
2722.6824523682
 20
6737.8680159617
 30
0.0
 11
2692.6824523682
 21
6737.8680159617
 31
0.0
  0
LINE
  5
10B
330
1F
100
AcDbEntity
  8
0
  6
Continuous
 62
     7
370
    25
100
AcDbLine
 10
2722.4302576319
 20
6738.2862741135
 30
0.0
 11
2722.4409709116
 21
6738.2862741135
 31
0.0
  0
LINE
  5
10C
330
1F
100
AcDbEntity
  8
0
  6
Continuous
 62
     7
370
    25
100
AcDbLine
 10
2692.9239338247
 20
6738.2862741135
 30
0.0
 11
2722.4302576319
 21
6738.2862741135
 31
0.0
  0
LINE
  5
10D
330
1F
100
AcDbEntity
  8
0
  6
Continuous
 62
     7
370
    25
100
AcDbLine
 10
2722.6824523682
 20
6736.8378524948
 30
0.0
 11
2692.6824523682
 21
6736.8378524948
 31
0.0
  0
LINE
  5
10E
330
1F
100
AcDbEntity
  8
0
  6
Continuous
 62
     7
370
    25
100
AcDbLine
 10
2720.3824523682
 20
6738.8378524948
 30
0.0
 11
2694.9824523682
 21
6738.8378524948
 31
0.0
  0
LINE
  5
10F
330
1F
100
AcDbEntity
  8
0
  6
Continuous
 62
     7
370
    25
100
AcDbLine
 10
2845.1682641075
 20
6815.0878524948
 30
0.0
 11
2844.4182641075
 21
6815.8378524948
 31
0.0
  0
LINE
  5
110
330
1F
100
AcDbEntity
  8
0
  6
Continuous
 62
     7
370
    25
100
AcDbLine
 10
2831.9182641075
 20
6815.8378524948
 30
0.0
 11
2831.1682641075
 21
6815.0878524948
 31
0.0
  0
LINE
  5
111
330
1F
100
AcDbEntity
  8
0
  6
Continuous
 62
     7
370
    25
100
AcDbLine
 10
2845.1682641075
 20
6814.8378524948
 30
0.0
 11
2845.1682641075
 21
6815.0878524948
 31
0.0
  0
LINE
  5
112
330
1F
100
AcDbEntity
  8
0
  6
Continuous
 62
     7
370
    25
100
AcDbLine
 10
2831.1682641075
 20
6815.0878524948
 30
0.0
 11
2831.1682641075
 21
6814.8378524948
 31
0.0
  0
LINE
  5
113
330
1F
100
AcDbEntity
  8
0
  6
Continuous
 62
     7
370
    25
100
AcDbLine
 10
2850.6182641075
 20
6814.3378524948
 30
0.0
 11
2850.1182641075
 21
6814.8378524948
 31
0.0
  0
LINE
  5
114
330
1F
100
AcDbEntity
  8
0
  6
Continuous
 62
     7
370
    25
100
AcDbLine
 10
2826.2182641075
 20
6814.8378524948
 30
0.0
 11
2825.7182641075
 21
6814.3378524948
 31
0.0
  0
LINE
  5
115
330
1F
100
AcDbEntity
  8
0
  6
Continuous
 62
     7
370
    25
100
AcDbLine
 10
2825.7182641075
 20
6813.4878524948
 30
0.0
 11
2825.8682641075
 21
6813.3378524948
 31
0.0
  0
LINE
  5
116
330
1F
100
AcDbEntity
  8
0
  6
Continuous
 62
     7
370
    25
100
AcDbLine
 10
2850.4682641075
 20
6813.3378524948
 30
0.0
 11
2850.6182641075
 21
6813.4878524948
 31
0.0
  0
LINE
  5
117
330
1F
100
AcDbEntity
  8
0
  6
Continuous
 62
     7
370
    25
100
AcDbLine
 10
2825.7182641075
 20
6814.3378524948
 30
0.0
 11
2825.7182641075
 21
6813.4878524948
 31
0.0
  0
LINE
  5
118
330
1F
100
AcDbEntity
  8
0
  6
Continuous
 62
     7
370
    25
100
AcDbLine
 10
2850.6182641075
 20
6813.4878524948
 30
0.0
 11
2850.6182641075
 21
6814.3378524948
 31
0.0
  0
LINE
  5
119
330
1F
100
AcDbEntity
  8
0
  6
Continuous
 62
     7
370
    25
100
AcDbLine
 10
2825.7932641075
 20
6811.1205228356
 30
0.0
 11
2825.7932641075
 21
6743.8378524948
 31
0.0
  0
LINE
  5
11A
330
1F
100
AcDbEntity
  8
0
  6
Continuous
 62
     7
370
    25
100
AcDbLine
 10
2825.7932641075
 20
6741.3378524948
 30
0.0
 11
2825.7932641075
 21
6738.9378524948
 31
0.0
  0
LINE
  5
11B
330
1F
100
AcDbEntity
  8
0
  6
Continuous
 62
     7
370
    25
100
AcDbLine
 10
2825.7932641075
 20
6813.2378524948
 30
0.0
 11
2825.7932641075
 21
6812.3628524948
 31
0.0
  0
LINE
  5
11C
330
1F
100
AcDbEntity
  8
0
  6
Continuous
 62
     7
370
    25
100
AcDbLine
 10
2850.5432641075
 20
6792.5850473332
 30
0.0
 11
2850.5432641075
 21
6813.2378524948
 31
0.0
  0
LINE
  5
11D
330
1F
100
AcDbEntity
  8
0
  6
Continuous
 62
     7
370
    25
100
AcDbLine
 10
2850.5432641075
 20
6738.9378524948
 30
0.0
 11
2850.5432641075
 21
6778.5878524948
 31
0.0
  0
LINE
  5
11E
330
1F
100
AcDbEntity
  8
0
  6
Continuous
 62
     7
370
    25
100
AcDbLine
 10
2850.5432641075
 20
6813.2378524948
 30
0.0
 11
2850.4432641075
 21
6813.3378524948
 31
0.0
  0
LINE
  5
11F
330
1F
100
AcDbEntity
  8
0
  6
Continuous
 62
     7
370
    25
100
AcDbLine
 10
2825.8932641075
 20
6813.3378524948
 30
0.0
 11
2825.7932641075
 21
6813.2378524948
 31
0.0
  0
LINE
  5
120
330
1F
100
AcDbEntity
  8
0
  6
Continuous
 62
     7
370
    25
100
AcDbLine
 10
2825.7932641075
 20
6738.9378524948
 30
0.0
 11
2825.8932641075
 21
6738.8378524948
 31
0.0
  0
LINE
  5
121
330
1F
100
AcDbEntity
  8
0
  6
Continuous
 62
     7
370
    25
100
AcDbLine
 10
2850.4432641075
 20
6738.8378524948
 30
0.0
 11
2850.5432641075
 21
6738.9378524948
 31
0.0
  0
LINE
  5
122
330
1F
100
AcDbEntity
  8
0
  6
Continuous
 62
     7
370
    25
100
AcDbLine
 10
2825.5432641075
 20
6742.2981264674
 30
0.0
 11
2825.5432641075
 21
6741.3378524948
 31
0.0
  0
LINE
  5
123
330
1F
100
AcDbEntity
  8
0
  6
Continuous
 62
     7
370
    25
100
AcDbLine
 10
2825.5432641075
 20
6743.8378524948
 30
0.0
 11
2825.5432641075
 21
6742.4117209217
 31
0.0
  0
LINE
  5
124
330
1F
100
AcDbEntity
  8
0
  6
Continuous
 62
     7
370
    25
100
AcDbLine
 10
2850.5291788385
 20
6778.6128524948
 30
0.0
 11
2873.3182641075
 21
6778.6128524948
 31
0.0
  0
LINE
  5
125
330
1F
100
AcDbEntity
  8
0
  6
Continuous
 62
     7
370
    25
100
AcDbLine
 10
2882.6682641075
 20
6792.5628524948
 30
0.0
 11
2850.5291915435
 21
6792.5628524948
 31
0.0
  0
LINE
  5
126
330
1F
100
AcDbEntity
  8
0
  6
Continuous
 62
     7
370
    25
100
AcDbLine
 10
2883.1682641075
 20
6792.0628524948
 30
0.0
 11
2882.6682641075
 21
6792.5628524948
 31
0.0
  0
LINE
  5
127
330
1F
100
AcDbEntity
  8
0
  6
Continuous
 62
     7
370
    25
100
AcDbLine
 10
2853.1682641075
 20
6737.8680159617
 30
0.0
 11
2852.9267826509
 21
6738.2862741135
 31
0.0
  0
LINE
  5
128
330
1F
100
AcDbEntity
  8
0
  6
Continuous
 62
     7
370
    25
100
AcDbLine
 10
2823.4097455641
 20
6738.2862741135
 30
0.0
 11
2823.1682641075
 21
6737.8680159617
 31
0.0
  0
LINE
  5
129
330
1F
100
AcDbEntity
  8
0
  6
Continuous
 62
     7
370
    25
100
AcDbLine
 10
2853.1682641075
 20
6736.8378524948
 30
0.0
 11
2853.1682641075
 21
6737.8680159617
 31
0.0
  0
LINE
  5
12A
330
1F
100
AcDbEntity
  8
0
  6
Continuous
 62
     7
370
    25
100
AcDbLine
 10
2823.1682641075
 20
6737.8680159617
 30
0.0
 11
2823.1682641075
 21
6736.8378524948
 31
0.0
  0
LINE
  5
12B
330
1F
100
AcDbEntity
  8
0
  6
Continuous
 62
     7
370
    25
100
AcDbLine
 10
2852.9267826509
 20
6738.2862741135
 30
0.0
 11
2850.8682641075
 21
6738.8378524948
 31
0.0
  0
LINE
  5
12C
330
1F
100
AcDbEntity
  8
0
  6
Continuous
 62
     7
370
    25
100
AcDbLine
 10
2825.4682641075
 20
6738.8378524948
 30
0.0
 11
2823.4097455641
 21
6738.2862741135
 31
0.0
  0
LINE
  5
12D
330
1F
100
AcDbEntity
  8
0
  6
Continuous
 62
     7
370
    25
100
AcDbLine
 10
2831.9182641075
 20
6815.8378524948
 30
0.0
 11
2844.4182641075
 21
6815.8378524948
 31
0.0
  0
LINE
  5
12E
330
1F
100
AcDbEntity
  8
0
  6
Continuous
 62
     7
370
    25
100
AcDbLine
 10
2845.1682641075
 20
6815.0878524948
 30
0.0
 11
2831.1682641075
 21
6815.0878524948
 31
0.0
  0
LINE
  5
12F
330
1F
100
AcDbEntity
  8
0
  6
Continuous
 62
     7
370
    25
100
AcDbLine
 10
2826.2182641075
 20
6814.8378524948
 30
0.0
 11
2850.1182641075
 21
6814.8378524948
 31
0.0
  0
LINE
  5
130
330
1F
100
AcDbEntity
  8
0
  6
Continuous
 62
     7
370
    25
100
AcDbLine
 10
2825.7182641075
 20
6814.3378524948
 30
0.0
 11
2850.6182641075
 21
6814.3378524948
 31
0.0
  0
LINE
  5
131
330
1F
100
AcDbEntity
  8
0
  6
Continuous
 62
     7
370
    25
100
AcDbLine
 10
2825.7182641075
 20
6813.4878524948
 30
0.0
 11
2850.6182641075
 21
6813.4878524948
 31
0.0
  0
LINE
  5
132
330
1F
100
AcDbEntity
  8
0
  6
Continuous
 62
     7
370
    25
100
AcDbLine
 10
2825.8682641075
 20
6813.3378524948
 30
0.0
 11
2850.4682641075
 21
6813.3378524948
 31
0.0
  0
SPLINE
  5
133
330
1F
100
AcDbEntity
  8
0
  6
Continuous
 62
     7
370
    25
100
AcDbSpline
210
0.0
220
0.0
230
1.0
 70
     8
 71
     3
 72
    26
 73
    22
 74
     0
 42
0.00000001
 43
0.00000001
 40
0.0
 40
0.0
 40
0.0
 40
0.0
 40
0.0475448847484225
 40
0.0965881775284169
 40
0.1441056613867713
 40
0.1928358838377171
 40
0.2438102838868683
 40
0.2959960045415728
 40
0.352118039872346
 40
0.4100669855322546
 40
0.4540372416434328
 40
0.499248888153166
 40
0.5432404325530085
 40
0.5885272152312346
 40
0.6774133088574172
 40
0.7284118715568247
 40
0.7806096045473632
 40
0.8369145499420058
 40
0.8950863273822974
 40
0.9473095639211782
 40
1.0
 40
1.0
 40
1.0
 40
1.0
 10
2850.543264107482
 20
6778.587852494842
 30
0.0
 10
2850.534268054458
 20
6778.603694378916
 30
0.0
 10
2850.515992431936
 20
6778.635877414365
 30
0.0
 10
2850.372399102022
 20
6778.892675749024
 30
0.0
 10
2850.156626948577
 20
6779.292477250303
 30
0.0
 10
2849.87646875971
 20
6779.840000550675
 30
0.0
 10
2849.548231182202
 20
6780.53601995656
 30
0.0
 10
2849.190449542193
 20
6781.393307256522
 30
0.0
 10
2848.838305160498
 20
6782.412598382203
 30
0.0
 10
2848.568059795987
 20
6783.490580339901
 30
0.0
 10
2848.408983796909
 20
6784.560000471131
 30
0.0
 10
2848.356553101072
 20
6785.55880882671
 30
0.0
 10
2848.404211558873
 20
6786.568076223949
 30
0.0
 10
2848.590939752447
 20
6787.865926013703
 30
0.0
 10
2848.941725605339
 20
6789.110473507247
 30
0.0
 10
2849.365514426094
 20
6790.217006257995
 30
0.0
 10
2849.721317070282
 20
6791.017297256739
 30
0.0
 10
2850.063150784547
 20
6791.706661989931
 30
0.0
 10
2850.333448337434
 20
6792.212729290715
 30
0.0
 10
2850.510579111947
 20
6792.530360586989
 30
0.0
 10
2850.531285555775
 20
6792.566764380239
 30
0.0
 10
2850.541684882456
 20
6792.585047333198
 30
0.0
  0
ARC
  5
134
330
1F
100
AcDbEntity
  8
0
  6
Continuous
 62
     7
370
    25
100
AcDbCircle
 10
2813.4273280361
 20
6811.7378698859
 30
0.0
 40
12.38171951640261
100
AcDbArc
 50
357.1420728559
 51
2.8933048526
  0
LINE
  5
135
330
1F
100
AcDbEntity
  8
0
  6
Continuous
 62
     7
370
    25
100
AcDbLine
 10
2850.5432641075
 20
6813.2378524948
 30
0.0
 11
2825.7932641075
 21
6813.2378524948
 31
0.0
  0
LINE
  5
136
330
1F
100
AcDbEntity
  8
0
  6
Continuous
 62
     7
370
    25
100
AcDbLine
 10
2825.7932641075
 20
6738.9378524948
 30
0.0
 11
2850.5432641075
 21
6738.9378524948
 31
0.0
  0
LINE
  5
137
330
1F
100
AcDbEntity
  8
0
  6
Continuous
 62
     7
370
    25
100
AcDbLine
 10
2825.5432641075
 20
6743.8378524948
 30
0.0
 11
2826.7654797171
 21
6743.8378524948
 31
0.0
  0
LINE
  5
138
330
1F
100
AcDbEntity
  8
0
  6
Continuous
 62
     7
370
    25
100
AcDbLine
 10
2826.7654797171
 20
6743.8378524948
 30
0.0
 11
2826.7654797171
 21
6741.3378524948
 31
0.0
  0
SPLINE
  5
139
330
1F
100
AcDbEntity
  8
0
  6
Continuous
 62
     7
370
    25
100
AcDbSpline
210
0.0
220
0.0
230
1.0
 70
     8
 71
     3
 72
    10
 73
     6
 74
     0
 42
0.00000001
 43
0.00000001
 40
0.0
 40
0.0
 40
0.0
 40
0.0
 40
0.4990665516922463
 40
0.7492735597631919
 40
1.0
 40
1.0
 40
1.0
 40
1.0
 10
2826.354963162227
 20
6743.276208659226
 30
0.0
 10
2826.35966543539
 20
6743.275131317338
 30
0.0
 10
2826.36672519313
 20
6743.273513850113
 30
0.0
 10
2826.374966957548
 20
6743.259506613475
 30
0.0
 10
2826.377885133541
 20
6743.249069575664
 30
0.0
 10
2826.379345734507
 20
6743.243845645527
 30
0.0
  0
SPLINE
  5
13A
330
1F
100
AcDbEntity
  8
0
  6
Continuous
 62
     7
370
    25
100
AcDbSpline
210
0.0
220
0.0
230
1.0
 70
     8
 71
     3
 72
    11
 73
     7
 74
     0
 42
0.00000001
 43
0.00000001
 40
0.0
 40
0.0
 40
0.0
 40
0.0
 40
0.2502250740515308
 40
0.5000221176555736
 40
0.7497760287819357
 40
1.0
 40
1.0
 40
1.0
 40
1.0
 10
2826.336879085064
 20
6743.250138453746
 30
0.0
 10
2826.337979103102
 20
6743.254073649588
 30
0.0
 10
2826.340177257508
 20
6743.261937309795
 30
0.0
 10
2826.344642399976
 20
6743.27023701933
 30
0.0
 10
2826.34963844336
 20
6743.275647374297
 30
0.0
 10
2826.35318714382
 20
6743.27602144702
 30
0.0
 10
2826.354963162227
 20
6743.276208659226
 30
0.0
  0
SPLINE
  5
13B
330
1F
100
AcDbEntity
  8
0
  6
Continuous
 62
     7
370
    25
100
AcDbSpline
210
0.0
220
0.0
230
1.0
 70
     8
 71
     3
 72
    10
 73
     6
 74
     0
 42
0.00000001
 43
0.00000001
 40
0.0
 40
0.0
 40
0.0
 40
0.0
 40
0.2558734379475471
 40
0.6629806120860766
 40
1.0
 40
1.0
 40
1.0
 40
1.0
 10
2826.332493148352
 20
6743.213879892102
 30
0.0
 10
2826.332560339171
 20
6743.217205819365
 30
0.0
 10
2826.332734433874
 20
6743.225823459827
 30
0.0
 10
2826.333945873426
 20
6743.238727138581
 30
0.0
 10
2826.335964731928
 20
6743.246581270322
 30
0.0
 10
2826.336879085064
 20
6743.250138453746
 30
0.0
  0
SPLINE
  5
13C
330
1F
100
AcDbEntity
  8
0
  6
Continuous
 62
     7
370
    25
100
AcDbSpline
210
0.0
220
0.0
230
1.0
 70
     8
 71
     3
 72
    10
 73
     6
 74
     0
 42
0.00000001
 43
0.00000001
 40
0.0
 40
0.0
 40
0.0
 40
0.0
 40
0.4205323629123043
 40
0.7090838547940549
 40
1.0
 40
1.0
 40
1.0
 40
1.0
 10
2826.33384944351
 20
6743.190506604432
 30
0.0
 10
2826.333508445905
 20
6743.193701996244
 30
0.0
 10
2826.33293347019
 20
6743.199089930547
 30
0.0
 10
2826.332600505615
 20
6743.206986671365
 30
0.0
 10
2826.332529031329
 20
6743.21157590937
 30
0.0
 10
2826.332493148352
 20
6743.213879892102
 30
0.0
  0
LINE
  5
13D
330
1F
100
AcDbEntity
  8
0
  6
Continuous
 62
     7
370
    25
100
AcDbLine
 10
2826.4845478303
 20
6742.5666196181
 30
0.0
 11
2826.3338494435
 21
6743.1905066044
 31
0.0
  0
LINE
  5
13E
330
1F
100
AcDbEntity
  8
0
  6
Continuous
 62
     7
370
    25
100
AcDbLine
 10
2826.3376112177
 20
6741.9595134537
 30
0.0
 11
2826.4845478303
 21
6742.5666196181
 31
0.0
  0
SPLINE
  5
13F
330
1F
100
AcDbEntity
  8
0
  6
Continuous
 62
     7
370
    25
100
AcDbSpline
210
0.0
220
0.0
230
1.0
 70
     8
 71
     3
 72
     9
 73
     5
 74
     0
 42
0.00000001
 43
0.00000001
 40
0.0
 40
0.0
 40
0.0
 40
0.0
 40
0.500046113259848
 40
1.0
 40
1.0
 40
1.0
 40
1.0
 10
2826.332493148352
 20
6741.90827201539
 30
0.0
 10
2826.332666044716
 20
6741.917371656737
 30
0.0
 10
2826.333011805556
 20
6741.935569261132
 30
0.0
 10
2826.336078174614
 20
6741.951532546955
 30
0.0
 10
2826.337611217743
 20
6741.959513453747
 30
0.0
  0
SPLINE
  5
140
330
1F
100
AcDbEntity
  8
0
  6
Continuous
 62
     7
370
    25
100
AcDbSpline
210
0.0
220
0.0
230
1.0
 70
     8
 71
     3
 72
    10
 73
     6
 74
     0
 42
0.00000001
 43
0.00000001
 40
0.0
 40
0.0
 40
0.0
 40
0.0
 40
0.250327941372281
 40
0.4999666459574915
 40
1.0
 40
1.0
 40
1.0
 40
1.0
 10
2826.347474344057
 20
6741.860027152376
 30
0.0
 10
2826.345514636894
 20
6741.861491445832
 30
0.0
 10
2826.341600618301
 20
6741.864416001052
 30
0.0
 10
2826.335670419914
 20
6741.880933746967
 30
0.0
 10
2826.333764441362
 20
6741.897333400646
 30
0.0
 10
2826.332493148352
 20
6741.90827201539
 30
0.0
  0
LINE
  5
141
330
1F
100
AcDbEntity
  8
0
  6
Continuous
 62
     7
370
    25
100
AcDbLine
 10
2826.3548574529
 20
6741.857030577
 30
0.0
 11
2826.3474743441
 21
6741.8600271524
 31
0.0
  0
SPLINE
  5
142
330
1F
100
AcDbEntity
  8
0
  6
Continuous
 62
     7
370
    25
100
AcDbSpline
210
0.0
220
0.0
230
1.0
 70
     8
 71
     3
 72
    10
 73
     6
 74
     0
 42
0.00000001
 43
0.00000001
 40
0.0
 40
0.0
 40
0.0
 40
0.0
 40
0.2502237850971473
 40
0.5004141625172195
 40
1.0
 40
1.0
 40
1.0
 40
1.0
 10
2826.374954678853
 20
6741.875609344158
 30
0.0
 10
2826.37354281669
 20
6741.872379652964
 30
0.0
 10
2826.370719280863
 20
6741.865920701777
 30
0.0
 10
2826.36383467708
 20
6741.858798782588
 30
0.0
 10
2826.358447200225
 20
6741.857737634248
 30
0.0
 10
2826.354857452934
 20
6741.857030577034
 30
0.0
  0
LINE
  5
143
330
1F
100
AcDbEntity
  8
0
  6
Continuous
 62
     7
370
    25
100
AcDbLine
 10
2826.5147506169
 20
6742.4701298921
 30
0.0
 11
2826.3749546789
 21
6741.8756093442
 31
0.0
  0
LINE
  5
144
330
1F
100
AcDbEntity
  8
0
  6
Continuous
 62
     7
370
    25
100
AcDbLine
 10
2826.6579078226
 20
6741.891790851
 30
0.0
 11
2826.5147506169
 21
6742.4701298921
 31
0.0
  0
SPLINE
  5
145
330
1F
100
AcDbEntity
  8
0
  6
Continuous
 62
     7
370
    25
100
AcDbSpline
210
0.0
220
0.0
230
1.0
 70
     8
 71
     3
 72
     9
 73
     5
 74
     0
 42
0.00000001
 43
0.00000001
 40
0.0
 40
0.0
 40
0.0
 40
0.0
 40
0.4998923417080742
 40
1.0
 40
1.0
 40
1.0
 40
1.0
 10
2826.675702670575
 20
6741.857030577034
 30
0.0
 10
2826.672262992084
 20
6741.861419251766
 30
0.0
 10
2826.665382153542
 20
6741.870198491547
 30
0.0
 10
2826.66039962386
 20
6741.884592364773
 30
0.0
 10
2826.657907822608
 20
6741.891790851007
 30
0.0
  0
SPLINE
  5
146
330
1F
100
AcDbEntity
  8
0
  6
Continuous
 62
     7
370
    25
100
AcDbSpline
210
0.0
220
0.0
230
1.0
 70
     8
 71
     3
 72
    11
 73
     7
 74
     0
 42
0.00000001
 43
0.00000001
 40
0.0
 40
0.0
 40
0.0
 40
0.0
 40
0.2500492632215804
 40
0.4998309992079434
 40
0.74976689178313
 40
1.0
 40
1.0
 40
1.0
 40
1.0
 10
2826.712072660182
 20
6741.890292563335
 30
0.0
 10
2826.709584300126
 20
6741.884869619438
 30
0.0
 10
2826.704610242305
 20
6741.874029533642
 30
0.0
 10
2826.695371010564
 20
6741.864018241653
 30
0.0
 10
2826.685654603228
 20
6741.858001286486
 30
0.0
 10
2826.679021295364
 20
6741.857354275009
 30
0.0
 10
2826.675702670575
 20
6741.857030577034
 30
0.0
  0
SPLINE
  5
147
330
1F
100
AcDbEntity
  8
0
  6
Continuous
 62
     7
370
    25
100
AcDbSpline
210
0.0
220
0.0
230
1.0
 70
     8
 71
     3
 72
    10
 73
     6
 74
     0
 42
0.00000001
 43
0.00000001
 40
0.0
 40
0.0
 40
0.0
 40
0.0
 40
0.304705801472948
 40
0.5762581046432658
 40
1.0
 40
1.0
 40
1.0
 40
1.0
 10
2826.716105494933
 20
6741.921456946897
 30
0.0
 10
2826.715926013925
 20
6741.918148505254
 30
0.0
 10
2826.715586580331
 20
6741.911891596784
 30
0.0
 10
2826.714380185772
 20
6741.9012753308
 30
0.0
 10
2826.712946443675
 20
6741.894451373518
 30
0.0
 10
2826.712072660182
 20
6741.890292563335
 30
0.0
  0
SPLINE
  5
148
330
1F
100
AcDbEntity
  8
0
  6
Continuous
 62
     7
370
    25
100
AcDbSpline
210
0.0
220
0.0
230
1.0
 70
     8
 71
     3
 72
    10
 73
     6
 74
     0
 42
0.00000001
 43
0.00000001
 40
0.0
 40
0.0
 40
0.0
 40
0.0
 40
0.3325154243635751
 40
0.6634226556241084
 40
1.0
 40
1.0
 40
1.0
 40
1.0
 10
2826.711191358469
 20
6741.949025440047
 30
0.0
 10
2826.711907402562
 20
6741.946158363116
 30
0.0
 10
2826.713336027641
 20
6741.940438075718
 30
0.0
 10
2826.715013719339
 20
6741.93119266311
 30
0.0
 10
2826.715739514586
 20
6741.924720512066
 30
0.0
 10
2826.716105494933
 20
6741.921456946897
 30
0.0
  0
LINE
  5
149
330
1F
100
AcDbEntity
  8
0
  6
Continuous
 62
     7
370
    25
100
AcDbLine
 10
2826.5463471984
 20
6742.5642223579
 30
0.0
 11
2826.7111913585
 21
6741.94902544
 31
0.0
  0
LINE
  5
14A
330
1F
100
AcDbEntity
  8
0
  6
Continuous
 62
     7
370
    25
100
AcDbLine
 10
2826.6998885188
 20
6743.168931262
 30
0.0
 11
2826.5463471984
 21
6742.5642223579
 31
0.0
  0
SPLINE
  5
14B
330
1F
100
AcDbEntity
  8
0
  6
Continuous
 62
     7
370
    25
100
AcDbSpline
210
0.0
220
0.0
230
1.0
 70
     8
 71
     3
 72
    10
 73
     6
 74
     0
 42
0.00000001
 43
0.00000001
 40
0.0
 40
0.0
 40
0.0
 40
0.0
 40
0.2492904803073617
 40
0.4993112821061945
 40
1.0
 40
1.0
 40
1.0
 40
1.0
 10
2826.716105494933
 20
6743.222270303061
 30
0.0
 10
2826.715675381944
 20
6743.216660336295
 30
0.0
 10
2826.714813895908
 20
6743.205423967799
 30
0.0
 10
2826.708774756243
 20
6743.187346494323
 30
0.0
 10
2826.703443932814
 20
6743.176299259459
 30
0.0
 10
2826.699888518799
 20
6743.168931261966
 30
0.0
  0
SPLINE
  5
14C
330
1F
100
AcDbEntity
  8
0
  6
Continuous
 62
     7
370
    25
100
AcDbSpline
210
0.0
220
0.0
230
1.0
 70
     8
 71
     3
 72
    11
 73
     7
 74
     0
 42
0.00000001
 43
0.00000001
 40
0.0
 40
0.0
 40
0.0
 40
0.0
 40
0.2504737303710377
 40
0.5001199898305628
 40
0.7496164706793966
 40
1.0
 40
1.0
 40
1.0
 40
1.0
 10
2826.695006870849
 20
6743.271114481144
 30
0.0
 10
2826.697502151154
 20
6743.269366285558
 30
0.0
 10
2826.702484468297
 20
6743.265875669767
 30
0.0
 10
2826.709104086491
 20
6743.255440386648
 30
0.0
 10
2826.713860973377
 20
6743.240171301301
 30
0.0
 10
2826.715356436503
 20
6743.228244357352
 30
0.0
 10
2826.716105494933
 20
6743.222270303061
 30
0.0
  0
SPLINE
  5
14D
330
1F
100
AcDbEntity
  8
0
  6
Continuous
 62
     7
370
    25
100
AcDbSpline
210
0.0
220
0.0
230
1.0
 70
     8
 71
     3
 72
     9
 73
     5
 74
     0
 42
0.00000001
 43
0.00000001
 40
0.0
 40
0.0
 40
0.0
 40
0.0
 40
0.500189805949995
 40
1.0
 40
1.0
 40
1.0
 40
1.0
 10
2826.682161592709
 20
6743.276208659226
 30
0.0
 10
2826.684330373355
 20
6743.2758160363
 30
0.0
 10
2826.688666288683
 20
6743.275031088427
 30
0.0
 10
2826.692893878408
 20
6743.272419686465
 30
0.0
 10
2826.695006870849
 20
6743.271114481144
 30
0.0
  0
SPLINE
  5
14E
330
1F
100
AcDbEntity
  8
0
  6
Continuous
 62
     7
370
    25
100
AcDbSpline
210
0.0
220
0.0
230
1.0
 70
     8
 71
     3
 72
     9
 73
     5
 74
     0
 42
0.00000001
 43
0.00000001
 40
0.0
 40
0.0
 40
0.0
 40
0.0
 40
0.5018301460567145
 40
1.0
 40
1.0
 40
1.0
 40
1.0
 10
2826.663330880949
 20
6743.256131604431
 30
0.0
 10
2826.666141061062
 20
6743.261306089278
 30
0.0
 10
2826.671740924152
 20
6743.271617316866
 30
0.0
 10
2826.678696523032
 20
6743.274681950925
 30
0.0
 10
2826.682161592709
 20
6743.276208659226
 30
0.0
  0
LINE
  5
14F
330
1F
100
AcDbEntity
  8
0
  6
Continuous
 62
     7
370
    25
100
AcDbLine
 10
2826.5153270582
 20
6742.6640083168
 30
0.0
 11
2826.6633308809
 21
6743.2561316044
 31
0.0
  0
LINE
  5
150
330
1F
100
AcDbEntity
  8
0
  6
Continuous
 62
     7
370
    25
100
AcDbLine
 10
2826.3793457345
 20
6743.2438456455
 30
0.0
 11
2826.5153270582
 21
6742.6640083168
 31
0.0
  0
SPLINE
  5
151
330
1F
100
AcDbEntity
  8
0
  6
Continuous
 62
     7
370
    25
100
AcDbSpline
210
0.0
220
0.0
230
1.0
 70
     8
 71
     3
 72
    10
 73
     6
 74
     0
 42
0.00000001
 43
0.00000001
 40
0.0
 40
0.0
 40
0.0
 40
0.0
 40
0.4990665516922249
 40
0.749273559763457
 40
1.0
 40
1.0
 40
1.0
 40
1.0
 10
2826.022398048809
 20
6743.276208659226
 30
0.0
 10
2826.026038231281
 20
6743.275131317338
 30
0.0
 10
2826.03150341918
 20
6743.273513850113
 30
0.0
 10
2826.037900517986
 20
6743.259506613476
 30
0.0
 10
2826.040167823804
 20
6743.249069575664
 30
0.0
 10
2826.041302652231
 20
6743.243845645527
 30
0.0
  0
SPLINE
  5
152
330
1F
100
AcDbEntity
  8
0
  6
Continuous
 62
     7
370
    25
100
AcDbSpline
210
0.0
220
0.0
230
1.0
 70
     8
 71
     3
 72
    11
 73
     7
 74
     0
 42
0.00000001
 43
0.00000001
 40
0.0
 40
0.0
 40
0.0
 40
0.0
 40
0.2502250740515298
 40
0.5000221176560091
 40
0.7497760287822925
 40
1.0
 40
1.0
 40
1.0
 40
1.0
 10
2826.00843489854
 20
6743.250138453746
 30
0.0
 10
2826.009282836618
 20
6743.254073649588
 30
0.0
 10
2826.010977262307
 20
6743.261937309795
 30
0.0
 10
2826.014422433003
 20
6743.27023701933
 30
0.0
 10
2826.018280593816
 20
6743.275647374297
 30
0.0
 10
2826.021024703842
 20
6743.27602144702
 30
0.0
 10
2826.022398048809
 20
6743.276208659226
 30
0.0
  0
SPLINE
  5
153
330
1F
100
AcDbEntity
  8
0
  6
Continuous
 62
     7
370
    25
100
AcDbSpline
210
0.0
220
0.0
230
1.0
 70
     8
 71
     3
 72
    10
 73
     6
 74
     0
 42
0.00000001
 43
0.00000001
 40
0.0
 40
0.0
 40
0.0
 40
0.0
 40
0.2558734379474782
 40
0.6629806120344964
 40
1.0
 40
1.0
 40
1.0
 40
1.0
 10
2826.005056068841
 20
6743.213879892102
 30
0.0
 10
2826.005107813657
 20
6743.217205819365
 30
0.0
 10
2826.00524188701
 20
6743.225823459826
 30
0.0
 10
2826.006174654138
 20
6743.238727138581
 30
0.0
 10
2826.007730325596
 20
6743.246581270322
 30
0.0
 10
2826.00843489854
 20
6743.250138453746
 30
0.0
  0
SPLINE
  5
154
330
1F
100
AcDbEntity
  8
0
  6
Continuous
 62
     7
370
    25
100
AcDbSpline
210
0.0
220
0.0
230
1.0
 70
     8
 71
     3
 72
    10
 73
     6
 74
     0
 42
0.00000001
 43
0.00000001
 40
0.0
 40
0.0
 40
0.0
 40
0.0
 40
0.4205323629123496
 40
0.7090838547939954
 40
0.9999999999999999
 40
0.9999999999999999
 40
0.9999999999999999
 40
0.9999999999999999
 10
2826.006100605581
 20
6743.190506604432
 30
0.0
 10
2826.005837972579
 20
6743.193701996244
 30
0.0
 10
2826.005395131936
 20
6743.199089930547
 30
0.0
 10
2826.005138739443
 20
6743.206986671365
 30
0.0
 10
2826.005083700575
 20
6743.21157590937
 30
0.0
 10
2826.005056068841
 20
6743.213879892102
 30
0.0
  0
LINE
  5
155
330
1F
100
AcDbEntity
  8
0
  6
Continuous
 62
     7
370
    25
100
AcDbLine
 10
2826.1238168728
 20
6742.5666196181
 30
0.0
 11
2826.0061006056
 21
6743.1905066044
 31
0.0
  0
LINE
  5
156
330
1F
100
AcDbEntity
  8
0
  6
Continuous
 62
     7
370
    25
100
AcDbLine
 10
2826.0089992118
 20
6741.9595134537
 30
0.0
 11
2826.1238168728
 21
6742.5666196181
 31
0.0
  0
SPLINE
  5
157
330
1F
100
AcDbEntity
  8
0
  6
Continuous
 62
     7
370
    25
100
AcDbSpline
210
0.0
220
0.0
230
1.0
 70
     8
 71
     3
 72
     9
 73
     5
 74
     0
 42
0.00000001
 43
0.00000001
 40
0.0
 40
0.0
 40
0.0
 40
0.0
 40
0.5000461132597971
 40
1.0
 40
1.0
 40
1.0
 40
1.0
 10
2826.005056068841
 20
6741.90827201539
 30
0.0
 10
2826.005189089513
 20
6741.917371656737
 30
0.0
 10
2826.005455106322
 20
6741.935569261132
 30
0.0
 10
2826.007817915915
 20
6741.951532546955
 30
0.0
 10
2826.008999211756
 20
6741.959513453747
 30
0.0
  0
SPLINE
  5
158
330
1F
100
AcDbEntity
  8
0
  6
Continuous
 62
     7
370
    25
100
AcDbSpline
210
0.0
220
0.0
230
1.0
 70
     8
 71
     3
 72
    10
 73
     6
 74
     0
 42
0.00000001
 43
0.00000001
 40
0.0
 40
0.0
 40
0.0
 40
0.0
 40
0.2503279413721708
 40
0.4999666459573227
 40
0.9999999999999999
 40
0.9999999999999999
 40
0.9999999999999999
 40
0.9999999999999999
 10
2826.016609643085
 20
6741.860027152376
 30
0.0
 10
2826.015096588182
 20
6741.861491445832
 30
0.0
 10
2826.012074644324
 20
6741.864416001052
 30
0.0
 10
2826.007502807322
 20
6741.880933746967
 30
0.0
 10
2826.00603506024
 20
6741.897333400646
 30
0.0
 10
2826.005056068841
 20
6741.90827201539
 30
0.0
  0
LINE
  5
159
330
1F
100
AcDbEntity
  8
0
  6
Continuous
 62
     7
370
    25
100
AcDbLine
 10
2826.0223162824
 20
6741.857030577
 30
0.0
 11
2826.0166096431
 21
6741.8600271524
 31
0.0
  0
SPLINE
  5
15A
330
1F
100
AcDbEntity
  8
0
  6
Continuous
 62
     7
370
    25
100
AcDbSpline
210
0.0
220
0.0
230
1.0
 70
     8
 71
     3
 72
    10
 73
     6
 74
     0
 42
0.00000001
 43
0.00000001
 40
0.0
 40
0.0
 40
0.0
 40
0.0
 40
0.2502237850967984
 40
0.5004141625172555
 40
1.0
 40
1.0
 40
1.0
 40
1.0
 10
2826.037891639007
 20
6741.875609344158
 30
0.0
 10
2826.036795588029
 20
6741.872379652964
 30
0.0
 10
2826.034603632407
 20
6741.865920701777
 30
0.0
 10
2826.029264244568
 20
6741.858798782588
 30
0.0
 10
2826.025094583152
 20
6741.857737634248
 30
0.0
 10
2826.022316282441
 20
6741.857030577034
 30
0.0
  0
LINE
  5
15B
330
1F
100
AcDbEntity
  8
0
  6
Continuous
 62
     7
370
    25
100
AcDbLine
 10
2826.1477668181
 20
6742.4701298921
 30
0.0
 11
2826.037891639
 21
6741.8756093442
 31
0.0
  0
LINE
  5
15C
330
1F
100
AcDbEntity
  8
0
  6
Continuous
 62
     7
370
    25
100
AcDbLine
 10
2826.2626638647
 20
6741.891790851
 30
0.0
 11
2826.1477668181
 21
6742.4701298921
 31
0.0
  0
SPLINE
  5
15D
330
1F
100
AcDbEntity
  8
0
  6
Continuous
 62
     7
370
    25
100
AcDbSpline
210
0.0
220
0.0
230
1.0
 70
     8
 71
     3
 72
     9
 73
     5
 74
     0
 42
0.00000001
 43
0.00000001
 40
0.0
 40
0.0
 40
0.0
 40
0.0
 40
0.4998923417080097
 40
1.0
 40
1.0
 40
1.0
 40
1.0
 10
2826.277091429115
 20
6741.857030577034
 30
0.0
 10
2826.274300776112
 20
6741.861419251766
 30
0.0
 10
2826.2687182681
 20
6741.870198491547
 30
0.0
 10
2826.264682288858
 20
6741.884592364773
 30
0.0
 10
2826.26266386473
 20
6741.891790851007
 30
0.0
  0
SPLINE
  5
15E
330
1F
100
AcDbEntity
  8
0
  6
Continuous
 62
     7
370
    25
100
AcDbSpline
210
0.0
220
0.0
230
1.0
 70
     8
 71
     3
 72
    11
 73
     7
 74
     0
 42
0.00000001
 43
0.00000001
 40
0.0
 40
0.0
 40
0.0
 40
0.0
 40
0.2500492632218044
 40
0.4998309992075887
 40
0.7497668917829234
 40
1.0
 40
1.0
 40
1.0
 40
1.0
 10
2826.306670953723
 20
6741.890292563335
 30
0.0
 10
2826.3046434715
 20
6741.884869619438
 30
0.0
 10
2826.300590676251
 20
6741.874029533642
 30
0.0
 10
2826.293071269961
 20
6741.864018241653
 30
0.0
 10
2826.285171253222
 20
6741.858001286486
 30
0.0
 10
2826.279785770556
 20
6741.857354275009
 30
0.0
 10
2826.277091429115
 20
6741.857030577034
 30
0.0
  0
SPLINE
  5
15F
330
1F
100
AcDbEntity
  8
0
  6
Continuous
 62
     7
370
    25
100
AcDbSpline
210
0.0
220
0.0
230
1.0
 70
     8
 71
     3
 72
    10
 73
     6
 74
     0
 42
0.00000001
 43
0.00000001
 40
0.0
 40
0.0
 40
0.0
 40
0.0
 40
0.3047058014730085
 40
0.5762581046499246
 40
1.0
 40
1.0
 40
1.0
 40
1.0
 10
2826.309958245121
 20
6741.921456946897
 30
0.0
 10
2826.309811915226
 20
6741.918148505254
 30
0.0
 10
2826.309535176851
 20
6741.911891596784
 30
0.0
 10
2826.308551653695
 20
6741.9012753308
 30
0.0
 10
2826.307383112495
 20
6741.894451373518
 30
0.0
 10
2826.306670953723
 20
6741.890292563335
 30
0.0
  0
SPLINE
  5
160
330
1F
100
AcDbEntity
  8
0
  6
Continuous
 62
     7
370
    25
100
AcDbSpline
210
0.0
220
0.0
230
1.0
 70
     8
 71
     3
 72
    10
 73
     6
 74
     0
 42
0.00000001
 43
0.00000001
 40
0.0
 40
0.0
 40
0.0
 40
0.0
 40
0.3325154243638357
 40
0.6634226556243702
 40
1.0
 40
1.0
 40
1.0
 40
1.0
 10
2826.305952770808
 20
6741.949025440047
 30
0.0
 10
2826.306536298582
 20
6741.946158363116
 30
0.0
 10
2826.30770053193
 20
6741.940438075718
 30
0.0
 10
2826.309068135613
 20
6741.93119266311
 30
0.0
 10
2826.309659866417
 20
6741.924720512066
 30
0.0
 10
2826.309958245121
 20
6741.921456946897
 30
0.0
  0
LINE
  5
161
330
1F
100
AcDbEntity
  8
0
  6
Continuous
 62
     7
370
    25
100
AcDbLine
 10
2826.1729361516
 20
6742.5642223579
 30
0.0
 11
2826.3059527708
 21
6741.94902544
 31
0.0
  0
LINE
  5
162
330
1F
100
AcDbEntity
  8
0
  6
Continuous
 62
     7
370
    25
100
AcDbLine
 10
2826.2967481678
 20
6743.168931262
 30
0.0
 11
2826.1729361516
 21
6742.5642223579
 31
0.0
  0
SPLINE
  5
163
330
1F
100
AcDbEntity
  8
0
  6
Continuous
 62
     7
370
    25
100
AcDbSpline
210
0.0
220
0.0
230
1.0
 70
     8
 71
     3
 72
    10
 73
     6
 74
     0
 42
0.00000001
 43
0.00000001
 40
0.0
 40
0.0
 40
0.0
 40
0.0
 40
0.2492904803073272
 40
0.4993112821062603
 40
1.0
 40
1.0
 40
1.0
 40
1.0
 10
2826.309958245121
 20
6743.222270303061
 30
0.0
 10
2826.309607562813
 20
6743.216660336295
 30
0.0
 10
2826.308905170838
 20
6743.205423967799
 30
0.0
 10
2826.303982707123
 20
6743.187346494323
 30
0.0
 10
2826.299642731718
 20
6743.176299259459
 30
0.0
 10
2826.296748167757
 20
6743.168931261966
 30
0.0
  0
SPLINE
  5
164
330
1F
100
AcDbEntity
  8
0
  6
Continuous
 62
     7
370
    25
100
AcDbSpline
210
0.0
220
0.0
230
1.0
 70
     8
 71
     3
 72
    11
 73
     7
 74
     0
 42
0.00000001
 43
0.00000001
 40
0.0
 40
0.0
 40
0.0
 40
0.0
 40
0.2504737303712323
 40
0.5001199898304621
 40
0.7496164706793018
 40
1.0
 40
1.0
 40
1.0
 40
1.0
 10
2826.292776327543
 20
6743.271114481144
 30
0.0
 10
2826.294806509494
 20
6743.269366285558
 30
0.0
 10
2826.298860166438
 20
6743.265875669767
 30
0.0
 10
2826.304251667942
 20
6743.255440386648
 30
0.0
 10
2826.308128296327
 20
6743.240171301301
 30
0.0
 10
2826.309347540997
 20
6743.228244357352
 30
0.0
 10
2826.309958245121
 20
6743.222270303061
 30
0.0
  0
SPLINE
  5
165
330
1F
100
AcDbEntity
  8
0
  6
Continuous
 62
     7
370
    25
100
AcDbSpline
210
0.0
220
0.0
230
1.0
 70
     8
 71
     3
 72
     9
 73
     5
 74
     0
 42
0.00000001
 43
0.00000001
 40
0.0
 40
0.0
 40
0.0
 40
0.0
 40
0.5001898059498866
 40
1.0
 40
1.0
 40
1.0
 40
1.0
 10
2826.282335530046
 20
6743.276208659226
 30
0.0
 10
2826.284097388558
 20
6743.2758160363
 30
0.0
 10
2826.287619768446
 20
6743.275031088427
 30
0.0
 10
2826.291057909564
 20
6743.272419686465
 30
0.0
 10
2826.292776327543
 20
6743.271114481144
 30
0.0
  0
SPLINE
  5
166
330
1F
100
AcDbEntity
  8
0
  6
Continuous
 62
     7
370
    25
100
AcDbSpline
210
0.0
220
0.0
230
1.0
 70
     8
 71
     3
 72
     9
 73
     5
 74
     0
 42
0.00000001
 43
0.00000001
 40
0.0
 40
0.0
 40
0.0
 40
0.0
 40
0.5018301460573817
 40
1.0
 40
1.0
 40
1.0
 40
1.0
 10
2826.267057539184
 20
6743.256131604431
 30
0.0
 10
2826.269335448953
 20
6743.261306089278
 30
0.0
 10
2826.273874653674
 20
6743.271617316866
 30
0.0
 10
2826.279522128391
 20
6743.274681950925
 30
0.0
 10
2826.282335530046
 20
6743.276208659226
 30
0.0
  0
LINE
  5
167
330
1F
100
AcDbEntity
  8
0
  6
Continuous
 62
     7
370
    25
100
AcDbLine
 10
2826.1482249727
 20
6742.6640083168
 30
0.0
 11
2826.2670575392
 21
6743.2561316044
 31
0.0
  0
LINE
  5
168
330
1F
100
AcDbEntity
  8
0
  6
Continuous
 62
     7
370
    25
100
AcDbLine
 10
2826.0413026522
 20
6743.2438456455
 30
0.0
 11
2826.1482249727
 21
6742.6640083168
 31
0.0
  0
SPLINE
  5
169
330
1F
100
AcDbEntity
  8
0
  6
Continuous
 62
     7
370
    25
100
AcDbSpline
210
0.0
220
0.0
230
1.0
 70
     8
 71
     3
 72
    10
 73
     6
 74
     0
 42
0.00000001
 43
0.00000001
 40
0.0
 40
0.0
 40
0.0
 40
0.0
 40
0.4990665516922887
 40
0.7492735597631714
 40
1.0
 40
1.0
 40
1.0
 40
1.0
 10
2825.775801419067
 20
6743.276208659226
 30
0.0
 10
2825.778353745625
 20
6743.275131317338
 30
0.0
 10
2825.782185681064
 20
6743.273513850113
 30
0.0
 10
2825.786692835569
 20
6743.259506613475
 30
0.0
 10
2825.788293223214
 20
6743.249069575664
 30
0.0
 10
2825.789094246781
 20
6743.243845645527
 30
0.0
  0
SPLINE
  5
16A
330
1F
100
AcDbEntity
  8
0
  6
Continuous
 62
     7
370
    25
100
AcDbSpline
210
0.0
220
0.0
230
1.0
 70
     8
 71
     3
 72
    11
 73
     7
 74
     0
 42
0.00000001
 43
0.00000001
 40
0.0
 40
0.0
 40
0.0
 40
0.0
 40
0.2502250740513963
 40
0.5000221176556823
 40
0.7497760287821593
 40
1.0
 40
1.0
 40
1.0
 40
1.0
 10
2825.766058026921
 20
6743.250138453746
 30
0.0
 10
2825.76664788333
 20
6743.254073649588
 30
0.0
 10
2825.767826587151
 20
6743.261937309795
 30
0.0
 10
2825.770227401145
 20
6743.27023701933
 30
0.0
 10
2825.772920371312
 20
6743.275647374297
 30
0.0
 10
2825.774840468081
 20
6743.27602144702
 30
0.0
 10
2825.775801419067
 20
6743.276208659226
 30
0.0
  0
SPLINE
  5
16B
330
1F
100
AcDbEntity
  8
0
  6
Continuous
 62
     7
370
    25
100
AcDbSpline
210
0.0
220
0.0
230
1.0
 70
     8
 71
     3
 72
    10
 73
     6
 74
     0
 42
0.00000001
 43
0.00000001
 40
0.0
 40
0.0
 40
0.0
 40
0.0
 40
0.2558734379474394
 40
0.6629806120352179
 40
1.0
 40
1.0
 40
1.0
 40
1.0
 10
2825.763710219605
 20
6743.213879892102
 30
0.0
 10
2825.763746152167
 20
6743.217205819365
 30
0.0
 10
2825.763839255197
 20
6743.225823459826
 30
0.0
 10
2825.764486747772
 20
6743.238727138581
 30
0.0
 10
2825.765568221139
 20
6743.246581270322
 30
0.0
 10
2825.766058026921
 20
6743.250138453746
 30
0.0
  0
SPLINE
  5
16C
330
1F
100
AcDbEntity
  8
0
  6
Continuous
 62
     7
370
    25
100
AcDbSpline
210
0.0
220
0.0
230
1.0
 70
     8
 71
     3
 72
    10
 73
     6
 74
     0
 42
0.00000001
 43
0.00000001
 40
0.0
 40
0.0
 40
0.0
 40
0.0
 40
0.4205323629124376
 40
0.7090838547939863
 40
1.0
 40
1.0
 40
1.0
 40
1.0
 10
2825.764435604692
 20
6743.190506604432
 30
0.0
 10
2825.764253195208
 20
6743.193701996244
 30
0.0
 10
2825.763945624065
 20
6743.199089930547
 30
0.0
 10
2825.763767618403
 20
6743.206986671365
 30
0.0
 10
2825.763729404518
 20
6743.21157590937
 30
0.0
 10
2825.763710219605
 20
6743.213879892102
 30
0.0
  0
LINE
  5
16D
330
1F
100
AcDbEntity
  8
0
  6
Continuous
 62
     7
370
    25
100
AcDbLine
 10
2825.8483365561
 20
6742.5666196181
 30
0.0
 11
2825.7644356047
 21
6743.1905066044
 31
0.0
  0
LINE
  5
16E
330
1F
100
AcDbEntity
  8
0
  6
Continuous
 62
     7
370
    25
100
AcDbLine
 10
2825.7664505265
 20
6741.9595134537
 30
0.0
 11
2825.8483365561
 21
6742.5666196181
 31
0.0
  0
SPLINE
  5
16F
330
1F
100
AcDbEntity
  8
0
  6
Continuous
 62
     7
370
    25
100
AcDbSpline
210
0.0
220
0.0
230
1.0
 70
     8
 71
     3
 72
     9
 73
     5
 74
     0
 42
0.00000001
 43
0.00000001
 40
0.0
 40
0.0
 40
0.0
 40
0.0
 40
0.5000461132599507
 40
1.0
 40
1.0
 40
1.0
 40
1.0
 10
2825.763710219605
 20
6741.90827201539
 30
0.0
 10
2825.763802423063
 20
6741.917371656737
 30
0.0
 10
2825.763986812974
 20
6741.935569261132
 30
0.0
 10
2825.765629339127
 20
6741.951532546955
 30
0.0
 10
2825.766450526462
 20
6741.959513453747
 30
0.0
  0
SPLINE
  5
170
330
1F
100
AcDbEntity
  8
0
  6
Continuous
 62
     7
370
    25
100
AcDbSpline
210
0.0
220
0.0
230
1.0
 70
     8
 71
     3
 72
    10
 73
     6
 74
     0
 42
0.00000001
 43
0.00000001
 40
0.0
 40
0.0
 40
0.0
 40
0.0
 40
0.2503279413722466
 40
0.49996664595731
 40
1.0
 40
1.0
 40
1.0
 40
1.0
 10
2825.771754396147
 20
6741.860027152376
 30
0.0
 10
2825.770698702912
 20
6741.861491445832
 30
0.0
 10
2825.768590223119
 20
6741.864416001052
 30
0.0
 10
2825.765409106981
 20
6741.880933746967
 30
0.0
 10
2825.764389980086
 20
6741.897333400646
 30
0.0
 10
2825.763710219605
 20
6741.90827201539
 30
0.0
  0
LINE
  5
171
330
1F
100
AcDbEntity
  8
0
  6
Continuous
 62
     7
370
    25
100
AcDbLine
 10
2825.7757441744
 20
6741.857030577
 30
0.0
 11
2825.7717543961
 21
6741.8600271524
 31
0.0
  0
SPLINE
  5
172
330
1F
100
AcDbEntity
  8
0
  6
Continuous
 62
     7
370
    25
100
AcDbSpline
210
0.0
220
0.0
230
1.0
 70
     8
 71
     3
 72
    10
 73
     6
 74
     0
 42
0.00000001
 43
0.00000001
 40
0.0
 40
0.0
 40
0.0
 40
0.0
 40
0.2502237850972012
 40
0.5004141625174584
 40
1.0
 40
1.0
 40
1.0
 40
1.0
 10
2825.786687419152
 20
6741.875609344158
 30
0.0
 10
2825.785914937211
 20
6741.872379652964
 30
0.0
 10
2825.784370076464
 20
6741.865920701777
 30
0.0
 10
2825.780613696776
 20
6741.858798782588
 30
0.0
 10
2825.777691363675
 20
6741.857737634248
 30
0.0
 10
2825.775744174367
 20
6741.857030577034
 30
0.0
  0
LINE
  5
173
330
1F
100
AcDbEntity
  8
0
  6
Continuous
 62
     7
370
    25
100
AcDbLine
 10
2825.8658641424
 20
6742.4701298921
 30
0.0
 11
2825.7866874192
 21
6741.8756093442
 31
0.0
  0
LINE
  5
174
330
1F
100
AcDbEntity
  8
0
  6
Continuous
 62
     7
370
    25
100
AcDbLine
 10
2825.9516877882
 20
6741.891790851
 30
0.0
 11
2825.8658641424
 21
6742.4701298921
 31
0.0
  0
SPLINE
  5
175
330
1F
100
AcDbEntity
  8
0
  6
Continuous
 62
     7
370
    25
100
AcDbSpline
210
0.0
220
0.0
230
1.0
 70
     8
 71
     3
 72
     9
 73
     5
 74
     0
 42
0.00000001
 43
0.00000001
 40
0.0
 40
0.0
 40
0.0
 40
0.0
 40
0.4998923417080138
 40
1.0
 40
1.0
 40
1.0
 40
1.0
 10
2825.96264595067
 20
6741.857030577034
 30
0.0
 10
2825.960524075408
 20
6741.861419251766
 30
0.0
 10
2825.956279410937
 20
6741.870198491547
 30
0.0
 10
2825.95321854881
 20
6741.884592364773
 30
0.0
 10
2825.95168778822
 20
6741.891790851007
 30
0.0
  0
SPLINE
  5
176
330
1F
100
AcDbEntity
  8
0
  6
Continuous
 62
     7
370
    25
100
AcDbSpline
210
0.0
220
0.0
230
1.0
 70
     8
 71
     3
 72
    11
 73
     7
 74
     0
 42
0.00000001
 43
0.00000001
 40
0.0
 40
0.0
 40
0.0
 40
0.0
 40
0.2500492632217657
 40
0.4998309992076985
 40
0.7497668917830539
 40
1.0
 40
1.0
 40
1.0
 40
1.0
 10
2825.985225646297
 20
6741.890292563335
 30
0.0
 10
2825.983673392433
 20
6741.884869619438
 30
0.0
 10
2825.980570545456
 20
6741.874029533642
 30
0.0
 10
2825.974824187002
 20
6741.864018241653
 30
0.0
 10
2825.968796477205
 20
6741.858001286486
 30
0.0
 10
2825.964696938205
 20
6741.857354275009
 30
0.0
 10
2825.96264595067
 20
6741.857030577034
 30
0.0
  0
SPLINE
  5
177
330
1F
100
AcDbEntity
  8
0
  6
Continuous
 62
     7
370
    25
100
AcDbSpline
210
0.0
220
0.0
230
1.0
 70
     8
 71
     3
 72
    10
 73
     6
 74
     0
 42
0.00000001
 43
0.00000001
 40
0.0
 40
0.0
 40
0.0
 40
0.0
 40
0.3047058014727364
 40
0.5762581046498431
 40
1.0
 40
1.0
 40
1.0
 40
1.0
 10
2825.987744126881
 20
6741.921456946897
 30
0.0
 10
2825.987631983822
 20
6741.918148505254
 30
0.0
 10
2825.987419899423
 20
6741.911891596784
 30
0.0
 10
2825.986666209051
 20
6741.9012753308
 30
0.0
 10
2825.985771139687
 20
6741.894451373518
 30
0.0
 10
2825.985225646297
 20
6741.890292563335
 30
0.0
  0
SPLINE
  5
178
330
1F
100
AcDbEntity
  8
0
  6
Continuous
 62
     7
370
    25
100
AcDbSpline
210
0.0
220
0.0
230
1.0
 70
     8
 71
     3
 72
    10
 73
     6
 74
     0
 42
0.00000001
 43
0.00000001
 40
0.0
 40
0.0
 40
0.0
 40
0.0
 40
0.3325154243634386
 40
0.6634226556240458
 40
1.0
 40
1.0
 40
1.0
 40
1.0
 10
2825.984675665482
 20
6741.949025440047
 30
0.0
 10
2825.985122546725
 20
6741.946158363116
 30
0.0
 10
2825.986014147895
 20
6741.940438075718
 30
0.0
 10
2825.987061983657
 20
6741.93119266311
 30
0.0
 10
2825.987515461746
 20
6741.924720512066
 30
0.0
 10
2825.987744126881
 20
6741.921456946897
 30
0.0
  0
LINE
  5
179
330
1F
100
AcDbEntity
  8
0
  6
Continuous
 62
     7
370
    25
100
AcDbLine
 10
2825.8844280793
 20
6742.5642223579
 30
0.0
 11
2825.9846756655
 21
6741.94902544
 31
0.0
  0
LINE
  5
17A
330
1F
100
AcDbEntity
  8
0
  6
Continuous
 62
     7
370
    25
100
AcDbLine
 10
2825.9776344493
 20
6743.168931262
 30
0.0
 11
2825.8844280793
 21
6742.5642223579
 31
0.0
  0
SPLINE
  5
17B
330
1F
100
AcDbEntity
  8
0
  6
Continuous
 62
     7
370
    25
100
AcDbSpline
210
0.0
220
0.0
230
1.0
 70
     8
 71
     3
 72
    10
 73
     6
 74
     0
 42
0.00000001
 43
0.00000001
 40
0.0
 40
0.0
 40
0.0
 40
0.0
 40
0.2492904803073596
 40
0.4993112821061574
 40
1.0
 40
1.0
 40
1.0
 40
1.0
 10
2825.987744126881
 20
6743.222270303061
 30
0.0
 10
2825.987475357384
 20
6743.216660336295
 30
0.0
 10
2825.986937031003
 20
6743.205423967799
 30
0.0
 10
2825.983166084457
 20
6743.187346494323
 30
0.0
 10
2825.979847675437
 20
6743.176299259459
 30
0.0
 10
2825.977634449264
 20
6743.168931261966
 30
0.0
  0
SPLINE
  5
17C
330
1F
100
AcDbEntity
  8
0
  6
Continuous
 62
     7
370
    25
100
AcDbSpline
210
0.0
220
0.0
230
1.0
 70
     8
 71
     3
 72
    11
 73
     7
 74
     0
 42
0.00000001
 43
0.00000001
 40
0.0
 40
0.0
 40
0.0
 40
0.0
 40
0.2504737303714804
 40
0.5001199898305949
 40
0.7496164706792972
 40
1.0
 40
1.0
 40
1.0
 40
1.0
 10
2825.974600529484
 20
6743.271114481144
 30
0.0
 10
2825.976151243446
 20
6743.269366285558
 30
0.0
 10
2825.979247548393
 20
6743.265875669767
 30
0.0
 10
2825.983372772141
 20
6743.255440386648
 30
0.0
 10
2825.986341703233
 20
6743.240171301301
 30
0.0
 10
2825.98727609963
 20
6743.228244357352
 30
0.0
 10
2825.987744126881
 20
6743.222270303061
 30
0.0
  0
SPLINE
  5
17D
330
1F
100
AcDbEntity
  8
0
  6
Continuous
 62
     7
370
    25
100
AcDbSpline
210
0.0
220
0.0
230
1.0
 70
     8
 71
     3
 72
     9
 73
     5
 74
     0
 42
0.00000001
 43
0.00000001
 40
0.0
 40
0.0
 40
0.0
 40
0.0
 40
0.5001898058910704
 40
1.0
 40
1.0
 40
1.0
 40
1.0
 10
2825.966638112632
 20
6743.276208659226
 30
0.0
 10
2825.96798057857
 20
6743.2758160363
 30
0.0
 10
2825.9706644916
 20
6743.275031088427
 30
0.0
 10
2825.973288848935
 20
6743.272419686465
 30
0.0
 10
2825.974600529484
 20
6743.271114481144
 30
0.0
  0
SPLINE
  5
17E
330
1F
100
AcDbEntity
  8
0
  6
Continuous
 62
     7
370
    25
100
AcDbSpline
210
0.0
220
0.0
230
1.0
 70
     8
 71
     3
 72
     9
 73
     5
 74
     0
 42
0.00000001
 43
0.00000001
 40
0.0
 40
0.0
 40
0.0
 40
0.0
 40
0.5018301460565084
 40
1.0
 40
1.0
 40
1.0
 40
1.0
 10
2825.955020980344
 20
6743.256131604431
 30
0.0
 10
2825.956750496714
 20
6743.261306089278
 30
0.0
 10
2825.960196914558
 20
6743.271617316866
 30
0.0
 10
2825.964496292267
 20
6743.274681950925
 30
0.0
 10
2825.966638112632
 20
6743.276208659226
 30
0.0
  0
LINE
  5
17F
330
1F
100
AcDbEntity
  8
0
  6
Continuous
 62
     7
370
    25
100
AcDbLine
 10
2825.8662007674
 20
6742.6640083168
 30
0.0
 11
2825.9550209803
 21
6743.2561316044
 31
0.0
  0
LINE
  5
180
330
1F
100
AcDbEntity
  8
0
  6
Continuous
 62
     7
370
    25
100
AcDbLine
 10
2825.7890942468
 20
6743.2438456455
 30
0.0
 11
2825.8662007674
 21
6742.6640083168
 31
0.0
  0
SPLINE
  5
181
330
1F
100
AcDbEntity
  8
0
  6
Continuous
 62
     7
370
    25
100
AcDbSpline
210
0.0
220
0.0
230
1.0
 70
     8
 71
     3
 72
    10
 73
     6
 74
     0
 42
0.00000001
 43
0.00000001
 40
0.0
 40
0.0
 40
0.0
 40
0.0
 40
0.4990665516923494
 40
0.7492735597632537
 40
1.0
 40
1.0
 40
1.0
 40
1.0
 10
2825.616918684836
 20
6743.276208659226
 30
0.0
 10
2825.618365090103
 20
6743.275131317338
 30
0.0
 10
2825.620536650629
 20
6743.273513850113
 30
0.0
 10
2825.623121959176
 20
6743.259506613475
 30
0.0
 10
2825.624044101099
 20
6743.249069575664
 30
0.0
 10
2825.624505650158
 20
6743.243845645527
 30
0.0
  0
SPLINE
  5
182
330
1F
100
AcDbEntity
  8
0
  6
Continuous
 62
     7
370
    25
100
AcDbSpline
210
0.0
220
0.0
230
1.0
 70
     8
 71
     3
 72
    11
 73
     7
 74
     0
 42
0.00000001
 43
0.00000001
 40
0.0
 40
0.0
 40
0.0
 40
0.0
 40
0.2502250740515236
 40
0.5000221176555042
 40
0.7497760287822737
 40
0.9999999999999999
 40
0.9999999999999999
 40
0.9999999999999999
 40
0.9999999999999999
 10
2825.611464014577
 20
6743.250138453746
 30
0.0
 10
2825.611791614311
 20
6743.254073649588
 30
0.0
 10
2825.612446253395
 20
6743.261937309795
 30
0.0
 10
2825.613785717716
 20
6743.27023701933
 30
0.0
 10
2825.615294436383
 20
6743.275647374297
 30
0.0
 10
2825.616376929446
 20
6743.27602144702
 30
0.0
 10
2825.616918684836
 20
6743.276208659226
 30
0.0
  0
SPLINE
  5
183
330
1F
100
AcDbEntity
  8
0
  6
Continuous
 62
     7
370
    25
100
AcDbSpline
210
0.0
220
0.0
230
1.0
 70
     8
 71
     3
 72
    10
 73
     6
 74
     0
 42
0.00000001
 43
0.00000001
 40
0.0
 40
0.0
 40
0.0
 40
0.0
 40
0.2558734379473929
 40
0.6629806120358913
 40
1.0
 40
1.0
 40
1.0
 40
1.0
 10
2825.610163847432
 20
6743.213879892102
 30
0.0
 10
2825.61018371341
 20
6743.217205819365
 30
0.0
 10
2825.610235187133
 20
6743.225823459826
 30
0.0
 10
2825.610592822201
 20
6743.238727138581
 30
0.0
 10
2825.611192442804
 20
6743.246581270322
 30
0.0
 10
2825.611464014577
 20
6743.250138453746
 30
0.0
  0
SPLINE
  5
184
330
1F
100
AcDbEntity
  8
0
  6
Continuous
 62
     7
370
    25
100
AcDbSpline
210
0.0
220
0.0
230
1.0
 70
     8
 71
     3
 72
    10
 73
     6
 74
     0
 42
0.00000001
 43
0.00000001
 40
0.0
 40
0.0
 40
0.0
 40
0.0
 40
0.4205323629124315
 40
0.7090838547940119
 40
0.9999999999999999
 40
0.9999999999999999
 40
0.9999999999999999
 40
0.9999999999999999
 10
2825.610564946588
 20
6743.190506604432
 30
0.0
 10
2825.610464051718
 20
6743.193701996244
 30
0.0
 10
2825.610293927064
 20
6743.199089930547
 30
0.0
 10
2825.610195568157
 20
6743.206986671365
 30
0.0
 10
2825.610174449733
 20
6743.21157590937
 30
0.0
 10
2825.610163847432
 20
6743.213879892102
 30
0.0
  0
LINE
  5
185
330
1F
100
AcDbEntity
  8
0
  6
Continuous
 62
     7
370
    25
100
AcDbLine
 10
2825.6600567311
 20
6742.5666196181
 30
0.0
 11
2825.6105649466
 21
6743.1905066044
 31
0.0
  0
LINE
  5
186
330
1F
100
AcDbEntity
  8
0
  6
Continuous
 62
     7
370
    25
100
AcDbLine
 10
2825.6116819223
 20
6741.9595134537
 30
0.0
 11
2825.6600567311
 21
6742.5666196181
 31
0.0
  0
SPLINE
  5
187
330
1F
100
AcDbEntity
  8
0
  6
Continuous
 62
     7
370
    25
100
AcDbSpline
210
0.0
220
0.0
230
1.0
 70
     8
 71
     3
 72
     9
 73
     5
 74
     0
 42
0.00000001
 43
0.00000001
 40
0.0
 40
0.0
 40
0.0
 40
0.0
 40
0.5000461132599276
 40
1.0
 40
1.0
 40
1.0
 40
1.0
 10
2825.610163847432
 20
6741.90827201539
 30
0.0
 10
2825.61021458106
 20
6741.917371656737
 30
0.0
 10
2825.61031603896
 20
6741.935569261132
 30
0.0
 10
2825.611226655868
 20
6741.951532546955
 30
0.0
 10
2825.61168192233
 20
6741.959513453747
 30
0.0
  0
SPLINE
  5
188
330
1F
100
AcDbEntity
  8
0
  6
Continuous
 62
     7
370
    25
100
AcDbSpline
210
0.0
220
0.0
230
1.0
 70
     8
 71
     3
 72
    10
 73
     6
 74
     0
 42
0.00000001
 43
0.00000001
 40
0.0
 40
0.0
 40
0.0
 40
0.0
 40
0.2503279413721825
 40
0.4999666459573391
 40
1.0
 40
1.0
 40
1.0
 40
1.0
 10
2825.614641689562
 20
6741.860027152376
 30
0.0
 10
2825.614050830195
 20
6741.861491445832
 30
0.0
 10
2825.612870738295
 20
6741.864416001052
 30
0.0
 10
2825.611102858971
 20
6741.880933746967
 30
0.0
 10
2825.610539565649
 20
6741.897333400646
 30
0.0
 10
2825.610163847432
 20
6741.90827201539
 30
0.0
  0
LINE
  5
189
330
1F
100
AcDbEntity
  8
0
  6
Continuous
 62
     7
370
    25
100
AcDbLine
 10
2825.616886367
 20
6741.857030577
 30
0.0
 11
2825.6146416896
 21
6741.8600271524
 31
0.0
  0
SPLINE
  5
18A
330
1F
100
AcDbEntity
  8
0
  6
Continuous
 62
     7
370
    25
100
AcDbSpline
210
0.0
220
0.0
230
1.0
 70
     8
 71
     3
 72
    10
 73
     6
 74
     0
 42
0.00000001
 43
0.00000001
 40
0.0
 40
0.0
 40
0.0
 40
0.0
 40
0.2502237850968822
 40
0.5004141625175469
 40
1.0
 40
1.0
 40
1.0
 40
1.0
 10
2825.623120043659
 20
6741.875609344158
 30
0.0
 10
2825.622676598385
 20
6741.872379652964
 30
0.0
 10
2825.621789767042
 20
6741.865920701777
 30
0.0
 10
2825.619642983174
 20
6741.858798782588
 30
0.0
 10
2825.617988662675
 20
6741.857737634248
 30
0.0
 10
2825.616886366982
 20
6741.857030577034
 30
0.0
  0
LINE
  5
18B
330
1F
100
AcDbEntity
  8
0
  6
Continuous
 62
     7
370
    25
100
AcDbLine
 10
2825.6710378979
 20
6742.4701298921
 30
0.0
 11
2825.6231200437
 21
6741.8756093442
 31
0.0
  0
LINE
  5
18C
330
1F
100
AcDbEntity
  8
0
  6
Continuous
 62
     7
370
    25
100
AcDbLine
 10
2825.7271806829
 20
6741.891790851
 30
0.0
 11
2825.6710378979
 21
6742.4701298921
 31
0.0
  0
SPLINE
  5
18D
330
1F
100
AcDbEntity
  8
0
  6
Continuous
 62
     7
370
    25
100
AcDbSpline
210
0.0
220
0.0
230
1.0
 70
     8
 71
     3
 72
     9
 73
     5
 74
     0
 42
0.00000001
 43
0.00000001
 40
0.0
 40
0.0
 40
0.0
 40
0.0
 40
0.4998923417079671
 40
1.0
 40
1.0
 40
1.0
 40
1.0
 10
2825.734591881468
 20
6741.857030577034
 30
0.0
 10
2825.733153802587
 20
6741.861419251766
 30
0.0
 10
2825.730277025408
 20
6741.870198491547
 30
0.0
 10
2825.728212945189
 20
6741.884592364773
 30
0.0
 10
2825.727180682865
 20
6741.891790851007
 30
0.0
  0
SPLINE
  5
18E
330
1F
100
AcDbEntity
  8
0
  6
Continuous
 62
     7
370
    25
100
AcDbSpline
210
0.0
220
0.0
230
1.0
 70
     8
 71
     3
 72
    11
 73
     7
 74
     0
 42
0.00000001
 43
0.00000001
 40
0.0
 40
0.0
 40
0.0
 40
0.0
 40
0.2500492632218598
 40
0.4998309992077721
 40
0.7497668917828321
 40
1.0
 40
1.0
 40
1.0
 40
1.0
 10
2825.750011928947
 20
6741.890292563335
 30
0.0
 10
2825.748945890299
 20
6741.884869619438
 30
0.0
 10
2825.746814953557
 20
6741.874029533642
 30
0.0
 10
2825.742882315685
 20
6741.864018241653
 30
0.0
 10
2825.738769576983
 20
6741.858001286486
 30
0.0
 10
2825.7359849982
 20
6741.857354275009
 30
0.0
 10
2825.734591881468
 20
6741.857030577034
 30
0.0
  0
SPLINE
  5
18F
330
1F
100
AcDbEntity
  8
0
  6
Continuous
 62
     7
370
    25
100
AcDbSpline
210
0.0
220
0.0
230
1.0
 70
     8
 71
     3
 72
    10
 73
     6
 74
     0
 42
0.00000001
 43
0.00000001
 40
0.0
 40
0.0
 40
0.0
 40
0.0
 40
0.3047058014729814
 40
0.576258104645855
 40
1.0
 40
1.0
 40
1.0
 40
1.0
 10
2825.751743772903
 20
6741.921456946897
 30
0.0
 10
2825.751666610429
 20
6741.918148505254
 30
0.0
 10
2825.751520681139
 20
6741.911891596784
 30
0.0
 10
2825.751002158174
 20
6741.9012753308
 30
0.0
 10
2825.750386895949
 20
6741.894451373518
 30
0.0
 10
2825.750011928947
 20
6741.890292563335
 30
0.0
  0
SPLINE
  5
190
330
1F
100
AcDbEntity
  8
0
  6
Continuous
 62
     7
370
    25
100
AcDbSpline
210
0.0
220
0.0
230
1.0
 70
     8
 71
     3
 72
    10
 73
     6
 74
     0
 42
0.00000001
 43
0.00000001
 40
0.0
 40
0.0
 40
0.0
 40
0.0
 40
0.3325154243637373
 40
0.6634226556244398
 40
1.0
 40
1.0
 40
1.0
 40
1.0
 10
2825.749634042997
 20
6741.949025440047
 30
0.0
 10
2825.749941114683
 20
6741.946158363116
 30
0.0
 10
2825.750553772918
 20
6741.940438075718
 30
0.0
 10
2825.751274424174
 20
6741.93119266311
 30
0.0
 10
2825.751586439829
 20
6741.924720512066
 30
0.0
 10
2825.751743772903
 20
6741.921456946897
 30
0.0
  0
LINE
  5
191
330
1F
100
AcDbEntity
  8
0
  6
Continuous
 62
     7
370
    25
100
AcDbLine
 10
2825.6828650426
 20
6742.5642223579
 30
0.0
 11
2825.749634043
 21
6741.94902544
 31
0.0
  0
LINE
  5
192
330
1F
100
AcDbEntity
  8
0
  6
Continuous
 62
     7
370
    25
100
AcDbLine
 10
2825.7448060514
 20
6743.168931262
 30
0.0
 11
2825.6828650426
 21
6742.5642223579
 31
0.0
  0
SPLINE
  5
193
330
1F
100
AcDbEntity
  8
0
  6
Continuous
 62
     7
370
    25
100
AcDbSpline
210
0.0
220
0.0
230
1.0
 70
     8
 71
     3
 72
    10
 73
     6
 74
     0
 42
0.00000001
 43
0.00000001
 40
0.0
 40
0.0
 40
0.0
 40
0.0
 40
0.2492904803073137
 40
0.499311282106247
 40
1.0
 40
1.0
 40
1.0
 40
1.0
 10
2825.751743772903
 20
6743.222270303061
 30
0.0
 10
2825.751558818569
 20
6743.216660336295
 30
0.0
 10
2825.751188368058
 20
6743.205423967799
 30
0.0
 10
2825.748595629451
 20
6743.187346494323
 30
0.0
 10
2825.746322274529
 20
6743.176299259459
 30
0.0
 10
2825.744806051366
 20
6743.168931261966
 30
0.0
  0
SPLINE
  5
194
330
1F
100
AcDbEntity
  8
0
  6
Continuous
 62
     7
370
    25
100
AcDbSpline
210
0.0
220
0.0
230
1.0
 70
     8
 71
     3
 72
    11
 73
     7
 74
     0
 42
0.00000001
 43
0.00000001
 40
0.0
 40
0.0
 40
0.0
 40
0.0
 40
0.2504737303715101
 40
0.5001199898305102
 40
0.7496164706793691
 40
1.0
 40
1.0
 40
1.0
 40
1.0
 10
2825.742731526117
 20
6743.271114481144
 30
0.0
 10
2825.743791796129
 20
6743.269366285558
 30
0.0
 10
2825.745908833422
 20
6743.265875669767
 30
0.0
 10
2825.748738581065
 20
6743.255440386648
 30
0.0
 10
2825.750778800762
 20
6743.240171301301
 30
0.0
 10
2825.751421735222
 20
6743.228244357352
 30
0.0
 10
2825.751743772903
 20
6743.222270303061
 30
0.0
  0
SPLINE
  5
195
330
1F
100
AcDbEntity
  8
0
  6
Continuous
 62
     7
370
    25
100
AcDbSpline
210
0.0
220
0.0
230
1.0
 70
     8
 71
     3
 72
     9
 73
     5
 74
     0
 42
0.00000001
 43
0.00000001
 40
0.0
 40
0.0
 40
0.0
 40
0.0
 40
0.5001898059386075
 40
1.0
 40
1.0
 40
1.0
 40
1.0
 10
2825.737303847925
 20
6743.276208659226
 30
0.0
 10
2825.738217419309
 20
6743.2758160363
 30
0.0
 10
2825.740043868734
 20
6743.275031088427
 30
0.0
 10
2825.741835867077
 20
6743.272419686465
 30
0.0
 10
2825.742731526117
 20
6743.271114481144
 30
0.0
  0
SPLINE
  5
196
330
1F
100
AcDbEntity
  8
0
  6
Continuous
 62
     7
370
    25
100
AcDbSpline
210
0.0
220
0.0
230
1.0
 70
     8
 71
     3
 72
     9
 73
     5
 74
     0
 42
0.00000001
 43
0.00000001
 40
0.0
 40
0.0
 40
0.0
 40
0.0
 40
0.501830146056758
 40
1.0
 40
1.0
 40
1.0
 40
1.0
 10
2825.729429800314
 20
6743.256131604431
 30
0.0
 10
2825.730598681763
 20
6743.261306089278
 30
0.0
 10
2825.732927918972
 20
6743.271617316866
 30
0.0
 10
2825.735848768662
 20
6743.274681950925
 30
0.0
 10
2825.737303847925
 20
6743.276208659226
 30
0.0
  0
LINE
  5
197
330
1F
100
AcDbEntity
  8
0
  6
Continuous
 62
     7
370
    25
100
AcDbLine
 10
2825.6712506106
 20
6742.6640083168
 30
0.0
 11
2825.7294298003
 21
6743.2561316044
 31
0.0
  0
LINE
  5
198
330
1F
100
AcDbEntity
  8
0
  6
Continuous
 62
     7
370
    25
100
AcDbLine
 10
2825.6245056502
 20
6743.2438456455
 30
0.0
 11
2825.6712506106
 21
6742.6640083168
 31
0.0
  0
SPLINE
  5
199
330
1F
100
AcDbEntity
  8
0
  6
Continuous
 62
     7
370
    25
100
AcDbSpline
210
0.0
220
0.0
230
1.0
 70
     8
 71
     3
 72
    10
 73
     6
 74
     0
 42
0.00000001
 43
0.00000001
 40
0.0
 40
0.0
 40
0.0
 40
0.0
 40
0.4990665516922619
 40
0.7492735597632674
 40
1.0
 40
1.0
 40
1.0
 40
1.0
 10
2825.54687441868
 20
6743.276208659226
 30
0.0
 10
2825.547204664994
 20
6743.275131317338
 30
0.0
 10
2825.547700480293
 20
6743.273513850113
 30
0.0
 10
2825.548345644061
 20
6743.259506613475
 30
0.0
 10
2825.548583013336
 20
6743.249069575664
 30
0.0
 10
2825.548701821042
 20
6743.243845645527
 30
0.0
  0
SPLINE
  5
19A
330
1F
100
AcDbEntity
  8
0
  6
Continuous
 62
     7
370
    25
100
AcDbSpline
210
0.0
220
0.0
230
1.0
 70
     8
 71
     3
 72
    11
 73
     7
 74
     0
 42
0.00000001
 43
0.00000001
 40
0.0
 40
0.0
 40
0.0
 40
0.0
 40
0.2502250740514369
 40
0.500022117655584
 40
0.7497760287821579
 40
1.0
 40
1.0
 40
1.0
 40
1.0
 10
2825.545747078482
 20
6743.250138453746
 30
0.0
 10
2825.54581010279
 20
6743.254073649588
 30
0.0
 10
2825.545936043598
 20
6743.261937309795
 30
0.0
 10
2825.546204677515
 20
6743.27023701933
 30
0.0
 10
2825.546518465965
 20
6743.275647374297
 30
0.0
 10
2825.54675569343
 20
6743.27602144702
 30
0.0
 10
2825.54687441868
 20
6743.276208659226
 30
0.0
  0
SPLINE
  5
19B
330
1F
100
AcDbEntity
  8
0
  6
Continuous
 62
     7
370
    25
100
AcDbSpline
210
0.0
220
0.0
230
1.0
 70
     8
 71
     3
 72
    10
 73
     6
 74
     0
 42
0.00000001
 43
0.00000001
 40
0.0
 40
0.0
 40
0.0
 40
0.0
 40
0.2558734379475263
 40
0.6629806120875117
 40
1.0
 40
1.0
 40
1.0
 40
1.0
 10
2825.545503754096
 20
6743.213879892102
 30
0.0
 10
2825.545507412879
 20
6743.217205819365
 30
0.0
 10
2825.545516892965
 20
6743.225823459827
 30
0.0
 10
2825.545582139183
 20
6743.238727138581
 30
0.0
 10
2825.545695662906
 20
6743.246581270322
 30
0.0
 10
2825.545747078482
 20
6743.250138453746
 30
0.0
  0
SPLINE
  5
19C
330
1F
100
AcDbEntity
  8
0
  6
Continuous
 62
     7
370
    25
100
AcDbSpline
210
0.0
220
0.0
230
1.0
 70
     8
 71
     3
 72
    10
 73
     6
 74
     0
 42
0.00000001
 43
0.00000001
 40
0.0
 40
0.0
 40
0.0
 40
0.0
 40
0.4205323629124291
 40
0.7090838547940008
 40
1.0
 40
1.0
 40
1.0
 40
1.0
 10
2825.54557772834
 20
6743.190506604432
 30
0.0
 10
2825.545559062219
 20
6743.193701996244
 30
0.0
 10
2825.545527588196
 20
6743.199089930547
 30
0.0
 10
2825.54550957223
 20
6743.206986671365
 30
0.0
 10
2825.545505698743
 20
6743.21157590937
 30
0.0
 10
2825.545503754096
 20
6743.213879892102
 30
0.0
  0
LINE
  5
19D
330
1F
100
AcDbEntity
  8
0
  6
Continuous
 62
     7
370
    25
100
AcDbLine
 10
2825.5603100428
 20
6742.5666196181
 30
0.0
 11
2825.5455777283
 21
6743.1905066044
 31
0.0
  0
LINE
  5
19E
330
1F
100
AcDbEntity
  8
0
  6
Continuous
 62
     7
370
    25
100
AcDbLine
 10
2825.5457888521
 20
6741.9595134537
 30
0.0
 11
2825.5603100428
 21
6742.5666196181
 31
0.0
  0
SPLINE
  5
19F
330
1F
100
AcDbEntity
  8
0
  6
Continuous
 62
     7
370
    25
100
AcDbSpline
210
0.0
220
0.0
230
1.0
 70
     8
 71
     3
 72
     9
 73
     5
 74
     0
 42
0.00000001
 43
0.00000001
 40
0.0
 40
0.0
 40
0.0
 40
0.0
 40
0.5000461132598952
 40
0.9999999999999999
 40
0.9999999999999999
 40
0.9999999999999999
 40
0.9999999999999999
 10
2825.545503754096
 20
6741.90827201539
 30
0.0
 10
2825.545512658802
 20
6741.917371656737
 30
0.0
 10
2825.545530466571
 20
6741.935569261132
 30
0.0
 10
2825.545702728884
 20
6741.951532546955
 30
0.0
 10
2825.545788852097
 20
6741.959513453747
 30
0.0
  0
SPLINE
  5
1A0
330
1F
100
AcDbEntity
  8
0
  6
Continuous
 62
     7
370
    25
100
AcDbSpline
210
0.0
220
0.0
230
1.0
 70
     8
 71
     3
 72
    10
 73
     6
 74
     0
 42
0.00000001
 43
0.00000001
 40
0.0
 40
0.0
 40
0.0
 40
0.0
 40
0.2503279413722235
 40
0.4999666459572479
 40
1.0
 40
1.0
 40
1.0
 40
1.0
 10
2825.546383567632
 20
6741.860027152376
 30
0.0
 10
2825.546261724238
 20
6741.861491445832
 30
0.0
 10
2825.546018372926
 20
6741.864416001052
 30
0.0
 10
2825.545676243473
 20
6741.880933746967
 30
0.0
 10
2825.545572770715
 20
6741.897333400646
 30
0.0
 10
2825.545503754096
 20
6741.90827201539
 30
0.0
  0
LINE
  5
1A1
330
1F
100
AcDbEntity
  8
0
  6
Continuous
 62
     7
370
    25
100
AcDbLine
 10
2825.5468672564
 20
6741.857030577
 30
0.0
 11
2825.5463835676
 21
6741.8600271524
 31
0.0
  0
SPLINE
  5
1A2
330
1F
100
AcDbEntity
  8
0
  6
Continuous
 62
     7
370
    25
100
AcDbSpline
210
0.0
220
0.0
230
1.0
 70
     8
 71
     3
 72
    10
 73
     6
 74
     0
 42
0.00000001
 43
0.00000001
 40
0.0
 40
0.0
 40
0.0
 40
0.0
 40
0.2502237850968987
 40
0.5004141625175067
 40
1.0
 40
1.0
 40
1.0
 40
1.0
 10
2825.548347243
 20
6741.875609344158
 30
0.0
 10
2825.548235973101
 20
6741.872379652964
 30
0.0
 10
2825.548013448159
 20
6741.865920701777
 30
0.0
 10
2825.547491455052
 20
6741.858798782588
 30
0.0
 10
2825.547116856441
 20
6741.857737634248
 30
0.0
 10
2825.546867256417
 20
6741.857030577034
 30
0.0
  0
LINE
  5
1A3
330
1F
100
AcDbEntity
  8
0
  6
Continuous
 62
     7
370
    25
100
AcDbLine
 10
2825.5646670655
 20
6742.4701298921
 30
0.0
 11
2825.548347243
 21
6741.8756093442
 31
0.0
  0
LINE
  5
1A4
330
1F
100
AcDbEntity
  8
0
  6
Continuous
 62
     7
370
    25
100
AcDbLine
 10
2825.5907316108
 20
6741.891790851
 30
0.0
 11
2825.5646670655
 21
6742.4701298921
 31
0.0
  0
SPLINE
  5
1A5
330
1F
100
AcDbEntity
  8
0
  6
Continuous
 62
     7
370
    25
100
AcDbSpline
210
0.0
220
0.0
230
1.0
 70
     8
 71
     3
 72
     9
 73
     5
 74
     0
 42
0.00000001
 43
0.00000001
 40
0.0
 40
0.0
 40
0.0
 40
0.0
 40
0.4998923417081672
 40
1.0
 40
1.0
 40
1.0
 40
1.0
 10
2825.594543389031
 20
6741.857030577034
 30
0.0
 10
2825.593799285259
 20
6741.861419251766
 30
0.0
 10
2825.592310757211
 20
6741.870198491547
 30
0.0
 10
2825.591258068468
 20
6741.884592364773
 30
0.0
 10
2825.590731610766
 20
6741.891790851007
 30
0.0
  0
SPLINE
  5
1A6
330
1F
100
AcDbEntity
  8
0
  6
Continuous
 62
     7
370
    25
100
AcDbSpline
210
0.0
220
0.0
230
1.0
 70
     8
 71
     3
 72
    11
 73
     7
 74
     0
 42
0.00000001
 43
0.00000001
 40
0.0
 40
0.0
 40
0.0
 40
0.0
 40
0.2500492632217298
 40
0.4998309992078896
 40
0.7497668917829514
 40
1.0
 40
1.0
 40
1.0
 40
1.0
 10
2825.602694645211
 20
6741.890292563335
 30
0.0
 10
2825.602122367206
 20
6741.884869619438
 30
0.0
 10
2825.600978423476
 20
6741.874029533642
 30
0.0
 10
2825.59888734141
 20
6741.864018241653
 30
0.0
 10
2825.596718683782
 20
6741.858001286486
 30
0.0
 10
2825.595268774475
 20
6741.85735427501
 30
0.0
 10
2825.594543389031
 20
6741.857030577034
 30
0.0
  0
SPLINE
  5
1A7
330
1F
100
AcDbEntity
  8
0
  6
Continuous
 62
     7
370
    25
100
AcDbSpline
210
0.0
220
0.0
230
1.0
 70
     8
 71
     3
 72
    10
 73
     6
 74
     0
 42
0.00000001
 43
0.00000001
 40
0.0
 40
0.0
 40
0.0
 40
0.0
 40
0.3047058014729424
 40
0.5762581046422762
 40
1.0
 40
1.0
 40
1.0
 40
1.0
 10
2825.603627594542
 20
6741.921456946897
 30
0.0
 10
2825.603585958809
 20
6741.918148505254
 30
0.0
 10
2825.603507217516
 20
6741.911891596784
 30
0.0
 10
2825.603227532066
 20
6741.9012753308
 30
0.0
 10
2825.602896431809
 20
6741.894451373518
 30
0.0
 10
2825.602694645211
 20
6741.890292563335
 30
0.0
  0
SPLINE
  5
1A8
330
1F
100
AcDbEntity
  8
0
  6
Continuous
 62
     7
370
    25
100
AcDbSpline
210
0.0
220
0.0
230
1.0
 70
     8
 71
     3
 72
    10
 73
     6
 74
     0
 42
0.00000001
 43
0.00000001
 40
0.0
 40
0.0
 40
0.0
 40
0.0
 40
0.3325154243639104
 40
0.663422655624572
 40
1.0
 40
1.0
 40
1.0
 40
1.0
 10
2825.602491528805
 20
6741.949025440047
 30
0.0
 10
2825.602656617478
 20
6741.946158363116
 30
0.0
 10
2825.602985996382
 20
6741.940438075718
 30
0.0
 10
2825.60337436236
 20
6741.93119266311
 30
0.0
 10
2825.603542707132
 20
6741.924720512066
 30
0.0
 10
2825.603627594542
 20
6741.921456946897
 30
0.0
  0
LINE
  5
1A9
330
1F
100
AcDbEntity
  8
0
  6
Continuous
 62
     7
370
    25
100
AcDbLine
 10
2825.5696737055
 20
6742.5642223579
 30
0.0
 11
2825.6024915288
 21
6741.94902544
 31
0.0
  0
LINE
  5
1AA
330
1F
100
AcDbEntity
  8
0
  6
Continuous
 62
     7
370
    25
100
AcDbLine
 10
2825.5999109343
 20
6743.168931262
 30
0.0
 11
2825.5696737055
 21
6742.5642223579
 31
0.0
  0
SPLINE
  5
1AB
330
1F
100
AcDbEntity
  8
0
  6
Continuous
 62
     7
370
    25
100
AcDbSpline
210
0.0
220
0.0
230
1.0
 70
     8
 71
     3
 72
    10
 73
     6
 74
     0
 42
0.00000001
 43
0.00000001
 40
0.0
 40
0.0
 40
0.0
 40
0.0
 40
0.2492904803073857
 40
0.4993112821062557
 40
1.0
 40
1.0
 40
1.0
 40
1.0
 10
2825.603627594542
 20
6743.222270303061
 30
0.0
 10
2825.603527764477
 20
6743.216660336295
 30
0.0
 10
2825.603327811885
 20
6743.205423967799
 30
0.0
 10
2825.601931632633
 20
6743.187346494323
 30
0.0
 10
2825.600719422621
 20
6743.176299259459
 30
0.0
 10
2825.599910934303
 20
6743.168931261966
 30
0.0
  0
SPLINE
  5
1AC
330
1F
100
AcDbEntity
  8
0
  6
Continuous
 62
     7
370
    25
100
AcDbSpline
210
0.0
220
0.0
230
1.0
 70
     8
 71
     3
 72
    11
 73
     7
 74
     0
 42
0.00000001
 43
0.00000001
 40
0.0
 40
0.0
 40
0.0
 40
0.0
 40
0.2504737303714594
 40
0.5001199898305121
 40
0.7496164706793546
 40
1.0
 40
1.0
 40
1.0
 40
1.0
 10
2825.59881048708
 20
6743.271114481144
 30
0.0
 10
2825.59937280855
 20
6743.269366285558
 30
0.0
 10
2825.60049559379
 20
6743.265875669767
 30
0.0
 10
2825.602009836364
 20
6743.255440386648
 30
0.0
 10
2825.603106903982
 20
6743.240171301301
 30
0.0
 10
2825.603453825815
 20
6743.228244357352
 30
0.0
 10
2825.603627594542
 20
6743.222270303061
 30
0.0
  0
SPLINE
  5
1AD
330
1F
100
AcDbEntity
  8
0
  6
Continuous
 62
     7
370
    25
100
AcDbSpline
210
0.0
220
0.0
230
1.0
 70
     8
 71
     3
 72
     9
 73
     5
 74
     0
 42
0.00000001
 43
0.00000001
 40
0.0
 40
0.0
 40
0.0
 40
0.0
 40
0.5001898059141883
 40
1.0
 40
1.0
 40
1.0
 40
1.0
 10
2825.595955964674
 20
6743.276208659226
 30
0.0
 10
2825.596434175243
 20
6743.2758160363
 30
0.0
 10
2825.597390233449
 20
6743.275031088427
 30
0.0
 10
2825.598337189028
 20
6743.272419686465
 30
0.0
 10
2825.59881048708
 20
6743.271114481144
 30
0.0
  0
SPLINE
  5
1AE
330
1F
100
AcDbEntity
  8
0
  6
Continuous
 62
     7
370
    25
100
AcDbSpline
210
0.0
220
0.0
230
1.0
 70
     8
 71
     3
 72
     9
 73
     5
 74
     0
 42
0.00000001
 43
0.00000001
 40
0.0
 40
0.0
 40
0.0
 40
0.0
 40
0.5018301460567296
 40
1.0
 40
1.0
 40
1.0
 40
1.0
 10
2825.591880734278
 20
6743.256131604431
 30
0.0
 10
2825.592480707458
 20
6743.261306089278
 30
0.0
 10
2825.593676277684
 20
6743.271617316866
 30
0.0
 10
2825.59519792557
 20
6743.274681950925
 30
0.0
 10
2825.595955964674
 20
6743.276208659226
 30
0.0
  0
LINE
  5
1AF
330
1F
100
AcDbEntity
  8
0
  6
Continuous
 62
     7
370
    25
100
AcDbLine
 10
2825.5647543604
 20
6742.6640083168
 30
0.0
 11
2825.5918807343
 21
6743.2561316044
 31
0.0
  0
LINE
  5
1B0
330
1F
100
AcDbEntity
  8
0
  6
Continuous
 62
     7
370
    25
100
AcDbLine
 10
2825.548701821
 20
6743.2438456455
 30
0.0
 11
2825.5647543604
 21
6742.6640083168
 31
0.0
  0
LINE
  5
1B1
330
1F
100
AcDbEntity
  8
0
  6
Continuous
 62
     7
370
    25
100
AcDbLine
 10
2825.5453376616
 20
6742.4117209217
 30
0.0
 11
2825.5437198845
 21
6742.4113970154
 31
0.0
  0
LINE
  5
1B2
330
1F
100
AcDbEntity
  8
0
  6
Continuous
 62
     7
370
    25
100
AcDbLine
 10
2825.5437072423
 20
6742.2981264674
 30
0.0
 11
2825.5432641075
 21
6742.2981264674
 31
0.0
  0
SPLINE
  5
1B3
330
1F
100
AcDbEntity
  8
0
  6
Continuous
 62
     7
370
    25
100
AcDbSpline
210
0.0
220
0.0
230
1.0
 70
     8
 71
     3
 72
    11
 73
     7
 74
     0
 42
0.00000001
 43
0.00000001
 40
0.0
 40
0.0
 40
0.0
 40
0.0
 40
0.1247652896758542
 40
0.4996017925282017
 40
0.749209663893555
 40
0.9999999999999999
 40
0.9999999999999999
 40
0.9999999999999999
 40
0.9999999999999999
 10
2825.544443958639
 20
6742.35566071402
 30
0.0
 10
2825.544430849989
 20
6742.35185789321
 30
0.0
 10
2825.544378358587
 20
6742.33663013156
 30
0.0
 10
2825.54419083058
 20
6742.316242219639
 30
0.0
 10
2825.543916006437
 20
6742.302292037413
 30
0.0
 10
2825.543776939896
 20
6742.299517176477
 30
0.0
 10
2825.543707242316
 20
6742.298126467444
 30
0.0
  0
SPLINE
  5
1B4
330
1F
100
AcDbEntity
  8
0
  6
Continuous
 62
     7
370
    25
100
AcDbSpline
210
0.0
220
0.0
230
1.0
 70
     8
 71
     3
 72
    12
 73
     8
 74
     0
 42
0.00000001
 43
0.00000001
 40
0.0
 40
0.0
 40
0.0
 40
0.0
 40
0.498878145304097
 40
0.6196312873304671
 40
0.74690643494257
 40
0.8663109629863337
 40
1.0
 40
1.0
 40
1.0
 40
1.0
 10
2825.54371988454
 20
6742.41139701539
 30
0.0
 10
2825.543870795236
 20
6742.408044457275
 30
0.0
 10
2825.544058233771
 20
6742.40388041457
 30
0.0
 10
2825.54428718896
 20
6742.388646544143
 30
0.0
 10
2825.544372074754
 20
6742.379035007447
 30
0.0
 10
2825.544436005195
 20
6742.367881024391
 30
0.0
 10
2825.54444120958
 20
6742.359884589439
 30
0.0
 10
2825.544443958639
 20
6742.35566071402
 30
0.0
  0
LINE
  5
1B5
330
1F
100
AcDbEntity
  8
0
  6
Continuous
 62
     7
370
    25
100
AcDbLine
 10
2825.5432641075
 20
6741.3378524948
 30
0.0
 11
2826.7654797171
 21
6741.3378524948
 31
0.0
  0
LINE
  5
1B6
330
1F
100
AcDbEntity
  8
0
  6
Continuous
 62
     7
370
    25
100
AcDbLine
 10
2826.8783785725
 20
6743.8378524948
 30
0.0
 11
2826.8783785725
 21
6741.3378524948
 31
0.0
  0
LINE
  5
1B7
330
1F
100
AcDbEntity
  8
0
  6
Continuous
 62
     7
370
    25
100
AcDbLine
 10
2826.7654797171
 20
6743.8378524948
 30
0.0
 11
2826.8783785725
 21
6743.8378524948
 31
0.0
  0
LINE
  5
1B8
330
1F
100
AcDbEntity
  8
0
  6
Continuous
 62
     7
370
    25
100
AcDbLine
 10
2826.7654797171
 20
6741.3378524948
 30
0.0
 11
2826.8783785725
 21
6741.3378524948
 31
0.0
  0
LINE
  5
1B9
330
1F
100
AcDbEntity
  8
0
  6
Continuous
 62
     7
370
    25
100
AcDbLine
 10
2826.5199420828
 20
6742.6640083168
 30
0.0
 11
2826.6678872901
 21
6743.2561316044
 31
0.0
  0
SPLINE
  5
1BA
330
1F
100
AcDbEntity
  8
0
  6
Continuous
 62
     7
370
    25
100
AcDbSpline
210
0.0
220
0.0
230
1.0
 70
     8
 71
     3
 72
     9
 73
     5
 74
     0
 42
0.00000001
 43
0.00000001
 40
0.0
 40
0.0
 40
0.0
 40
0.0
 40
0.5018528075883423
 40
0.9999999999999999
 40
0.9999999999999999
 40
0.9999999999999999
 40
0.9999999999999999
 10
2826.667887290148
 20
6743.256131604431
 30
0.0
 10
2826.670696275382
 20
6743.261306068028
 30
0.0
 10
2826.676293504674
 20
6743.271616787664
 30
0.0
 10
2826.68324678642
 20
6743.274681821317
 30
0.0
 10
2826.6867105442
 20
6743.276208659226
 30
0.0
  0
SPLINE
  5
1BB
330
1F
100
AcDbEntity
  8
0
  6
Continuous
 62
     7
370
    25
100
AcDbSpline
210
0.0
220
0.0
230
1.0
 70
     8
 71
     3
 72
     9
 73
     5
 74
     0
 42
0.00000001
 43
0.00000001
 40
0.0
 40
0.0
 40
0.0
 40
0.0
 40
0.4998675798210157
 40
0.9999999999999999
 40
0.9999999999999999
 40
0.9999999999999999
 40
0.9999999999999999
 10
2826.680254180054
 20
6741.857030577034
 30
0.0
 10
2826.676815806096
 20
6741.861419441466
 30
0.0
 10
2826.669937236456
 20
6741.870199495643
 30
0.0
 10
2826.664957104834
 20
6741.88459246194
 30
0.0
 10
2826.662466379553
 20
6741.891790851007
 30
0.0
  0
LINE
  5
1BC
330
1F
100
AcDbEntity
  8
0
  6
Continuous
 62
     7
370
    25
100
AcDbLine
 10
2826.6624663796
 20
6741.891790851
 30
0.0
 11
2826.5193658698
 21
6742.4701298921
 31
0.0
  0
LINE
  5
1BD
330
1F
100
AcDbEntity
  8
0
  6
Continuous
 62
     7
370
    25
100
AcDbLine
 10
2826.3595360298
 20
6741.857030577
 30
0.0
 11
2826.352155845
 21
6741.8600271524
 31
0.0
  0
SPLINE
  5
1BE
330
1F
100
AcDbEntity
  8
0
  6
Continuous
 62
     7
370
    25
100
AcDbSpline
210
0.0
220
0.0
230
1.0
 70
     8
 71
     3
 72
    10
 73
     6
 74
     0
 42
0.00000001
 43
0.00000001
 40
0.0
 40
0.0
 40
0.0
 40
0.0
 40
0.250284038022651
 40
0.4999128011859422
 40
0.9999999999999999
 40
0.9999999999999999
 40
0.9999999999999999
 40
0.9999999999999999
 10
2826.352155844953
 20
6741.860027152376
 30
0.0
 10
2826.350196866109
 20
6741.861491565711
 30
0.0
 10
2826.346284037273
 20
6741.864416558364
 30
0.0
 10
2826.340356229614
 20
6741.880935532976
 30
0.0
 10
2826.338451262909
 20
6741.897333793
 30
0.0
 10
2826.337180582395
 20
6741.90827201539
 30
0.0
  0
SPLINE
  5
1BF
330
1F
100
AcDbEntity
  8
0
  6
Continuous
 62
     7
370
    25
100
AcDbSpline
210
0.0
220
0.0
230
1.0
 70
     8
 71
     3
 72
     9
 73
     5
 74
     0
 42
0.00000001
 43
0.00000001
 40
0.0
 40
0.0
 40
0.0
 40
0.0
 40
0.5000617086091496
 40
1.0
 40
1.0
 40
1.0
 40
1.0
 10
2826.337180582395
 20
6741.90827201539
 30
0.0
 10
2826.337353382844
 20
6741.917371535134
 30
0.0
 10
2826.337698941094
 20
6741.935568328825
 30
0.0
 10
2826.340764189685
 20
6741.951532402187
 30
0.0
 10
2826.342296624827
 20
6741.959513453747
 30
0.0
  0
LINE
  5
1C0
330
1F
100
AcDbEntity
  8
0
  6
Continuous
 62
     7
370
    25
100
AcDbLine
 10
2826.3422966248
 20
6741.9595134537
 30
0.0
 11
2826.4891750446
 21
6742.5666196181
 31
0.0
  0
LINE
  5
1C1
330
1F
100
AcDbEntity
  8
0
  6
Continuous
 62
     7
370
    25
100
AcDbLine
 10
2826.4891750446
 20
6742.5666196181
 30
0.0
 11
2826.3385363404
 21
6743.1905066044
 31
0.0
  0
SPLINE
  5
1C2
330
1F
100
AcDbEntity
  8
0
  6
Continuous
 62
     7
370
    25
100
AcDbSpline
210
0.0
220
0.0
230
1.0
 70
     8
 71
     3
 72
     9
 73
     5
 74
     0
 42
0.00000001
 43
0.00000001
 40
0.0
 40
0.0
 40
0.0
 40
0.0
 40
0.499939915500571
 40
0.9999999999999999
 40
0.9999999999999999
 40
0.9999999999999999
 40
0.9999999999999999
 10
2826.338536340406
 20
6743.190506604432
 30
0.0
 10
2826.338149157606
 20
6743.194324545907
 30
0.0
 10
2826.337374698938
 20
6743.201961346566
 30
0.0
 10
2826.337245293093
 20
6743.209906725328
 30
0.0
 10
2826.337180582395
 20
6743.213879892102
 30
0.0
  0
SPLINE
  5
1C3
330
1F
100
AcDbEntity
  8
0
  6
Continuous
 62
     7
370
    25
100
AcDbSpline
210
0.0
220
0.0
230
1.0
 70
     8
 71
     3
 72
     9
 73
     5
 74
     0
 42
0.00000001
 43
0.00000001
 40
0.0
 40
0.0
 40
0.0
 40
0.0
 40
0.5003682129158251
 40
1.0
 40
1.0
 40
1.0
 40
1.0
 10
2826.337180582395
 20
6743.213879892102
 30
0.0
 10
2826.337289351831
 20
6743.220546985806
 30
0.0
 10
2826.337506730619
 20
6743.233871360799
 30
0.0
 10
2826.340212762539
 20
6743.244718752198
 30
0.0
 10
2826.341564782103
 20
6743.250138453746
 30
0.0
  0
SPLINE
  5
1C4
330
1F
100
AcDbEntity
  8
0
  6
Continuous
 62
     7
370
    25
100
AcDbSpline
210
0.0
220
0.0
230
1.0
 70
     8
 71
     3
 72
    11
 73
     7
 74
     0
 42
0.00000001
 43
0.00000001
 40
0.0
 40
0.0
 40
0.0
 40
0.0
 40
0.2502556926832449
 40
0.5000591285676074
 40
0.7497998166589701
 40
1.0
 40
1.0
 40
1.0
 40
1.0
 10
2826.341564782103
 20
6743.250138453746
 30
0.0
 10
2826.342664333153
 20
6743.254073589827
 30
0.0
 10
2826.344861448169
 20
6743.261936750493
 30
0.0
 10
2826.34932483022
 20
6743.270236770912
 30
0.0
 10
2826.354318975857
 20
6743.275647327614
 30
0.0
 10
2826.357866369987
 20
6743.276021434075
 30
0.0
 10
2826.359641697255
 20
6743.276208659226
 30
0.0
  0
LINE
  5
1C5
330
1F
100
AcDbEntity
  8
0
  6
Continuous
 62
     7
370
    25
100
AcDbLine
 10
2826.6633308809
 20
6743.2561316044
 30
0.0
 11
2826.6678872901
 21
6743.2561316044
 31
0.0
  0
LINE
  5
1C6
330
1F
100
AcDbEntity
  8
0
  6
Continuous
 62
     7
370
    25
100
AcDbLine
 10
2826.6821615927
 20
6743.2762086592
 30
0.0
 11
2826.6867105442
 21
6743.2762086592
 31
0.0
  0
LINE
  5
1C7
330
1F
100
AcDbEntity
  8
0
  6
Continuous
 62
     7
370
    25
100
AcDbLine
 10
2826.6579078226
 20
6741.891790851
 30
0.0
 11
2826.6624663796
 21
6741.891790851
 31
0.0
  0
LINE
  5
1C8
330
1F
100
AcDbEntity
  8
0
  6
Continuous
 62
     7
370
    25
100
AcDbLine
 10
2826.5153270582
 20
6742.6640083168
 30
0.0
 11
2826.5199420828
 21
6742.6640083168
 31
0.0
  0
LINE
  5
1C9
330
1F
100
AcDbEntity
  8
0
  6
Continuous
 62
     7
370
    25
100
AcDbLine
 10
2826.5147506169
 20
6742.4701298921
 30
0.0
 11
2826.5193658698
 21
6742.4701298921
 31
0.0
  0
LINE
  5
1CA
330
1F
100
AcDbEntity
  8
0
  6
Continuous
 62
     7
370
    25
100
AcDbLine
 10
2826.3338494435
 20
6743.1905066044
 30
0.0
 11
2826.3385363404
 21
6743.1905066044
 31
0.0
  0
LINE
  5
1CB
330
1F
100
AcDbEntity
  8
0
  6
Continuous
 62
     7
370
    25
100
AcDbLine
 10
2826.4845478303
 20
6742.5666196181
 30
0.0
 11
2826.4891750446
 21
6742.5666196181
 31
0.0
  0
LINE
  5
1CC
330
1F
100
AcDbEntity
  8
0
  6
Continuous
 62
     7
370
    25
100
AcDbLine
 10
2826.3376112177
 20
6741.9595134537
 30
0.0
 11
2826.3422966248
 21
6741.9595134537
 31
0.0
  0
LINE
  5
1CD
330
1F
100
AcDbEntity
  8
0
  6
Continuous
 62
     7
370
    25
100
AcDbLine
 10
2826.3368790851
 20
6743.2501384537
 30
0.0
 11
2826.3415647821
 21
6743.2501384537
 31
0.0
  0
LINE
  5
1CE
330
1F
100
AcDbEntity
  8
0
  6
Continuous
 62
     7
370
    25
100
AcDbLine
 10
2826.3549631622
 20
6743.2762086592
 30
0.0
 11
2826.3596416973
 21
6743.2762086592
 31
0.0
  0
LINE
  5
1CF
330
1F
100
AcDbEntity
  8
0
  6
Continuous
 62
     7
370
    25
100
AcDbLine
 10
2826.3474743441
 20
6741.8600271524
 30
0.0
 11
2826.352155845
 21
6741.8600271524
 31
0.0
  0
LINE
  5
1D0
330
1F
100
AcDbEntity
  8
0
  6
Continuous
 62
     7
370
    25
100
AcDbLine
 10
2826.3548574529
 20
6741.857030577
 30
0.0
 11
2826.3595360298
 21
6741.857030577
 31
0.0
  0
LINE
  5
1D1
330
1F
100
AcDbEntity
  8
0
  6
Continuous
 62
     7
370
    25
100
AcDbLine
 10
2826.3324931484
 20
6741.9082720154
 30
0.0
 11
2826.3371805824
 21
6741.9082720154
 31
0.0
  0
LINE
  5
1D2
330
1F
100
AcDbEntity
  8
0
  6
Continuous
 62
     7
370
    25
100
AcDbLine
 10
2826.3324931484
 20
6743.2138798921
 30
0.0
 11
2826.3371805824
 21
6743.2138798921
 31
0.0
  0
LINE
  5
1D3
330
1F
100
AcDbEntity
  8
0
  6
Continuous
 62
     7
370
    25
100
AcDbLine
 10
2826.1529853842
 20
6742.6640083168
 30
0.0
 11
2826.2717708883
 21
6743.2561316044
 31
0.0
  0
SPLINE
  5
1D4
330
1F
100
AcDbEntity
  8
0
  6
Continuous
 62
     7
370
    25
100
AcDbSpline
210
0.0
220
0.0
230
1.0
 70
     8
 71
     3
 72
     9
 73
     5
 74
     0
 42
0.00000001
 43
0.00000001
 40
0.0
 40
0.0
 40
0.0
 40
0.0
 40
0.5018528075875502
 40
1.0
 40
1.0
 40
1.0
 40
1.0
 10
2826.271770888321
 20
6743.256131604431
 30
0.0
 10
2826.274047829406
 20
6743.261306068028
 30
0.0
 10
2826.278584898943
 20
6743.271616787664
 30
0.0
 10
2826.284230492108
 20
6743.274681821317
 30
0.0
 10
2826.287042828492
 20
6743.276208659226
 30
0.0
  0
SPLINE
  5
1D5
330
1F
100
AcDbEntity
  8
0
  6
Continuous
 62
     7
370
    25
100
AcDbSpline
210
0.0
220
0.0
230
1.0
 70
     8
 71
     3
 72
     9
 73
     5
 74
     0
 42
0.00000001
 43
0.00000001
 40
0.0
 40
0.0
 40
0.0
 40
0.0
 40
0.4998675798208156
 40
0.9999999999999999
 40
0.9999999999999999
 40
0.9999999999999999
 40
0.9999999999999999
 10
2826.281800804433
 20
6741.857030577034
 30
0.0
 10
2826.279011209906
 20
6741.861419441466
 30
0.0
 10
2826.273430542866
 20
6741.870199495643
 30
0.0
 10
2826.269396506371
 20
6741.88459246194
 30
0.0
 10
2826.267378953935
 20
6741.891790851007
 30
0.0
  0
LINE
  5
1D6
330
1F
100
AcDbEntity
  8
0
  6
Continuous
 62
     7
370
    25
100
AcDbLine
 10
2826.2673789539
 20
6741.891790851
 30
0.0
 11
2826.1525274111
 21
6742.4701298921
 31
0.0
  0
LINE
  5
1D7
330
1F
100
AcDbEntity
  8
0
  6
Continuous
 62
     7
370
    25
100
AcDbLine
 10
2826.0271265588
 20
6741.857030577
 30
0.0
 11
2826.0214221795
 21
6741.8600271524
 31
0.0
  0
SPLINE
  5
1D8
330
1F
100
AcDbEntity
  8
0
  6
Continuous
 62
     7
370
    25
100
AcDbSpline
210
0.0
220
0.0
230
1.0
 70
     8
 71
     3
 72
    10
 73
     6
 74
     0
 42
0.00000001
 43
0.00000001
 40
0.0
 40
0.0
 40
0.0
 40
0.0
 40
0.2502840380222929
 40
0.4999128011859738
 40
1.0
 40
1.0
 40
1.0
 40
1.0
 10
2826.021422179506
 20
6741.860027152376
 30
0.0
 10
2826.019909686985
 20
6741.861491565711
 30
0.0
 10
2826.016888661835
 20
6741.864416558364
 30
0.0
 10
2826.01231866846
 20
6741.880935532976
 30
0.0
 10
2826.010851700629
 20
6741.897333793
 30
0.0
 10
2826.009873180936
 20
6741.90827201539
 30
0.0
  0
SPLINE
  5
1D9
330
1F
100
AcDbEntity
  8
0
  6
Continuous
 62
     7
370
    25
100
AcDbSpline
210
0.0
220
0.0
230
1.0
 70
     8
 71
     3
 72
     9
 73
     5
 74
     0
 42
0.00000001
 43
0.00000001
 40
0.0
 40
0.0
 40
0.0
 40
0.0
 40
0.5000617086091894
 40
1.0
 40
1.0
 40
1.0
 40
1.0
 10
2826.009873180936
 20
6741.90827201539
 30
0.0
 10
2826.010006127781
 20
6741.917371535134
 30
0.0
 10
2826.010271988658
 20
6741.935568328825
 30
0.0
 10
2826.01263393486
 20
6741.951532402187
 30
0.0
 10
2826.013814762209
 20
6741.959513453747
 30
0.0
  0
LINE
  5
1DA
330
1F
100
AcDbEntity
  8
0
  6
Continuous
 62
     7
370
    25
100
AcDbLine
 10
2826.0138147622
 20
6741.9595134537
 30
0.0
 11
2826.1285869509
 21
6742.5666196181
 31
0.0
  0
LINE
  5
1DB
330
1F
100
AcDbEntity
  8
0
  6
Continuous
 62
     7
370
    25
100
AcDbLine
 10
2826.1285869509
 20
6742.5666196181
 30
0.0
 11
2826.010917304
 21
6743.1905066044
 31
0.0
  0
SPLINE
  5
1DC
330
1F
100
AcDbEntity
  8
0
  6
Continuous
 62
     7
370
    25
100
AcDbSpline
210
0.0
220
0.0
230
1.0
 70
     8
 71
     3
 72
     9
 73
     5
 74
     0
 42
0.00000001
 43
0.00000001
 40
0.0
 40
0.0
 40
0.0
 40
0.0
 40
0.4999399155006888
 40
0.9999999999999999
 40
0.9999999999999999
 40
0.9999999999999999
 40
0.9999999999999999
 10
2826.010917303998
 20
6743.190506604432
 30
0.0
 10
2826.010619105124
 20
6743.194324545907
 30
0.0
 10
2826.010022635699
 20
6743.201961346566
 30
0.0
 10
2826.009923003181
 20
6743.209906725328
 30
0.0
 10
2826.009873180936
 20
6743.213879892102
 30
0.0
  0
SPLINE
  5
1DD
330
1F
100
AcDbEntity
  8
0
  6
Continuous
 62
     7
370
    25
100
AcDbSpline
210
0.0
220
0.0
230
1.0
 70
     8
 71
     3
 72
     9
 73
     5
 74
     0
 42
0.00000001
 43
0.00000001
 40
0.0
 40
0.0
 40
0.0
 40
0.0
 40
0.5003682129157873
 40
1.0
 40
1.0
 40
1.0
 40
1.0
 10
2826.009873180936
 20
6743.213879892102
 30
0.0
 10
2826.009956846067
 20
6743.220546985806
 30
0.0
 10
2826.010124053193
 20
6743.233871360799
 30
0.0
 10
2826.012208977852
 20
6743.244718752198
 30
0.0
 10
2826.013250672484
 20
6743.250138453746
 30
0.0
  0
SPLINE
  5
1DE
330
1F
100
AcDbEntity
  8
0
  6
Continuous
 62
     7
370
    25
100
AcDbSpline
210
0.0
220
0.0
230
1.0
 70
     8
 71
     3
 72
    11
 73
     7
 74
     0
 42
0.00000001
 43
0.00000001
 40
0.0
 40
0.0
 40
0.0
 40
0.0
 40
0.2502556926832345
 40
0.5000591285672005
 40
0.7497998166588302
 40
0.9999999999999999
 40
0.9999999999999999
 40
0.9999999999999999
 40
0.9999999999999999
 10
2826.013250672484
 20
6743.250138453746
 30
0.0
 10
2826.014098250569
 20
6743.254073589827
 30
0.0
 10
2826.015791875014
 20
6743.261936750493
 30
0.0
 10
2826.019235687269
 20
6743.270236770912
 30
0.0
 10
2826.02309238242
 20
6743.275647327614
 30
0.0
 10
2826.025835482275
 20
6743.276021434075
 30
0.0
 10
2826.027208292793
 20
6743.276208659226
 30
0.0
  0
LINE
  5
1DF
330
1F
100
AcDbEntity
  8
0
  6
Continuous
 62
     7
370
    25
100
AcDbLine
 10
2826.2670575392
 20
6743.2561316044
 30
0.0
 11
2826.2717708883
 21
6743.2561316044
 31
0.0
  0
LINE
  5
1E0
330
1F
100
AcDbEntity
  8
0
  6
Continuous
 62
     7
370
    25
100
AcDbLine
 10
2826.28233553
 20
6743.2762086592
 30
0.0
 11
2826.2870428285
 21
6743.2762086592
 31
0.0
  0
LINE
  5
1E1
330
1F
100
AcDbEntity
  8
0
  6
Continuous
 62
     7
370
    25
100
AcDbLine
 10
2826.2626638647
 20
6741.891790851
 30
0.0
 11
2826.2673789539
 21
6741.891790851
 31
0.0
  0
LINE
  5
1E2
330
1F
100
AcDbEntity
  8
0
  6
Continuous
 62
     7
370
    25
100
AcDbLine
 10
2826.1482249727
 20
6742.6640083168
 30
0.0
 11
2826.1529853842
 21
6742.6640083168
 31
0.0
  0
LINE
  5
1E3
330
1F
100
AcDbEntity
  8
0
  6
Continuous
 62
     7
370
    25
100
AcDbLine
 10
2826.1477668181
 20
6742.4701298921
 30
0.0
 11
2826.1525274111
 21
6742.4701298921
 31
0.0
  0
LINE
  5
1E4
330
1F
100
AcDbEntity
  8
0
  6
Continuous
 62
     7
370
    25
100
AcDbLine
 10
2826.0061006056
 20
6743.1905066044
 30
0.0
 11
2826.010917304
 21
6743.1905066044
 31
0.0
  0
LINE
  5
1E5
330
1F
100
AcDbEntity
  8
0
  6
Continuous
 62
     7
370
    25
100
AcDbLine
 10
2826.1238168728
 20
6742.5666196181
 30
0.0
 11
2826.1285869509
 21
6742.5666196181
 31
0.0
  0
LINE
  5
1E6
330
1F
100
AcDbEntity
  8
0
  6
Continuous
 62
     7
370
    25
100
AcDbLine
 10
2826.0089992118
 20
6741.9595134537
 30
0.0
 11
2826.0138147622
 21
6741.9595134537
 31
0.0
  0
LINE
  5
1E7
330
1F
100
AcDbEntity
  8
0
  6
Continuous
 62
     7
370
    25
100
AcDbLine
 10
2826.0084348985
 20
6743.2501384537
 30
0.0
 11
2826.0132506725
 21
6743.2501384537
 31
0.0
  0
LINE
  5
1E8
330
1F
100
AcDbEntity
  8
0
  6
Continuous
 62
     7
370
    25
100
AcDbLine
 10
2826.0223980488
 20
6743.2762086592
 30
0.0
 11
2826.0272082928
 21
6743.2762086592
 31
0.0
  0
LINE
  5
1E9
330
1F
100
AcDbEntity
  8
0
  6
Continuous
 62
     7
370
    25
100
AcDbLine
 10
2826.0166096431
 20
6741.8600271524
 30
0.0
 11
2826.0214221795
 21
6741.8600271524
 31
0.0
  0
LINE
  5
1EA
330
1F
100
AcDbEntity
  8
0
  6
Continuous
 62
     7
370
    25
100
AcDbLine
 10
2826.0223162824
 20
6741.857030577
 30
0.0
 11
2826.0271265588
 21
6741.857030577
 31
0.0
  0
LINE
  5
1EB
330
1F
100
AcDbEntity
  8
0
  6
Continuous
 62
     7
370
    25
100
AcDbLine
 10
2826.0050560688
 20
6741.9082720154
 30
0.0
 11
2826.0098731809
 21
6741.9082720154
 31
0.0
  0
LINE
  5
1EC
330
1F
100
AcDbEntity
  8
0
  6
Continuous
 62
     7
370
    25
100
AcDbLine
 10
2826.0050560688
 20
6743.2138798921
 30
0.0
 11
2826.0098731809
 21
6743.2138798921
 31
0.0
  0
LINE
  5
1ED
330
1F
100
AcDbEntity
  8
0
  6
Continuous
 62
     7
370
    25
100
AcDbLine
 10
2825.8710728717
 20
6742.6640083168
 30
0.0
 11
2825.9598579083
 21
6743.2561316044
 31
0.0
  0
SPLINE
  5
1EE
330
1F
100
AcDbEntity
  8
0
  6
Continuous
 62
     7
370
    25
100
AcDbSpline
210
0.0
220
0.0
230
1.0
 70
     8
 71
     3
 72
     9
 73
     5
 74
     0
 42
0.00000001
 43
0.00000001
 40
0.0
 40
0.0
 40
0.0
 40
0.0
 40
0.5018528075873676
 40
1.0
 40
1.0
 40
1.0
 40
1.0
 10
2825.959857908315
 20
6743.256131604431
 30
0.0
 10
2825.961586689054
 20
6743.261306068028
 30
0.0
 10
2825.965031485443
 20
6743.271616787664
 30
0.0
 10
2825.969329430497
 20
6743.274681821317
 30
0.0
 10
2825.971470439759
 20
6743.276208659226
 30
0.0
  0
SPLINE
  5
1EF
330
1F
100
AcDbEntity
  8
0
  6
Continuous
 62
     7
370
    25
100
AcDbSpline
210
0.0
220
0.0
230
1.0
 70
     8
 71
     3
 72
     9
 73
     5
 74
     0
 42
0.00000001
 43
0.00000001
 40
0.0
 40
0.0
 40
0.0
 40
0.0
 40
0.4998675798204288
 40
0.9999999999999999
 40
0.9999999999999999
 40
0.9999999999999999
 40
0.9999999999999999
 10
2825.967479858851
 20
6741.857030577034
 30
0.0
 10
2825.965358788516
 20
6741.861419441466
 30
0.0
 10
2825.961115524058
 20
6741.870199495643
 30
0.0
 10
2825.958056135613
 20
6741.88459246194
 30
0.0
 10
2825.956526036266
 20
6741.891790851007
 30
0.0
  0
LINE
  5
1F0
330
1F
100
AcDbEntity
  8
0
  6
Continuous
 62
     7
370
    25
100
AcDbLine
 10
2825.9565260363
 20
6741.891790851
 30
0.0
 11
2825.87073638
 21
6742.4701298921
 31
0.0
  0
LINE
  5
1F1
330
1F
100
AcDbEntity
  8
0
  6
Continuous
 62
     7
370
    25
100
AcDbLine
 10
2825.7806521031
 20
6741.857030577
 30
0.0
 11
2825.7766639049
 21
6741.8600271524
 31
0.0
  0
SPLINE
  5
1F2
330
1F
100
AcDbEntity
  8
0
  6
Continuous
 62
     7
370
    25
100
AcDbSpline
210
0.0
220
0.0
230
1.0
 70
     8
 71
     3
 72
    10
 73
     6
 74
     0
 42
0.00000001
 43
0.00000001
 40
0.0
 40
0.0
 40
0.0
 40
0.0
 40
0.2502840380224827
 40
0.4999128011860501
 40
1.0
 40
1.0
 40
1.0
 40
1.0
 10
2825.776663904944
 20
6741.860027152376
 30
0.0
 10
2825.775608604171
 20
6741.861491565711
 30
0.0
 10
2825.773500765535
 20
6741.864416558364
 30
0.0
 10
2825.770320932872
 20
6741.880935532976
 30
0.0
 10
2825.769302347121
 20
6741.897333793
 30
0.0
 10
2825.768622914214
 20
6741.90827201539
 30
0.0
  0
SPLINE
  5
1F3
330
1F
100
AcDbEntity
  8
0
  6
Continuous
 62
     7
370
    25
100
AcDbSpline
210
0.0
220
0.0
230
1.0
 70
     8
 71
     3
 72
     9
 73
     5
 74
     0
 42
0.00000001
 43
0.00000001
 40
0.0
 40
0.0
 40
0.0
 40
0.0
 40
0.5000617086092632
 40
1.0
 40
1.0
 40
1.0
 40
1.0
 10
2825.768622914214
 20
6741.90827201539
 30
0.0
 10
2825.768715066456
 20
6741.917371535134
 30
0.0
 10
2825.768899348195
 20
6741.935568328825
 30
0.0
 10
2825.770541274147
 20
6741.951532402187
 30
0.0
 10
2825.771362135801
 20
6741.959513453747
 30
0.0
  0
LINE
  5
1F4
330
1F
100
AcDbEntity
  8
0
  6
Continuous
 62
     7
370
    25
100
AcDbLine
 10
2825.7713621358
 20
6741.9595134537
 30
0.0
 11
2825.8532157354
 21
6742.5666196181
 31
0.0
  0
LINE
  5
1F5
330
1F
100
AcDbEntity
  8
0
  6
Continuous
 62
     7
370
    25
100
AcDbLine
 10
2825.8532157354
 20
6742.5666196181
 30
0.0
 11
2825.769348012
 21
6743.1905066044
 31
0.0
  0
SPLINE
  5
1F6
330
1F
100
AcDbEntity
  8
0
  6
Continuous
 62
     7
370
    25
100
AcDbSpline
210
0.0
220
0.0
230
1.0
 70
     8
 71
     3
 72
     9
 73
     5
 74
     0
 42
0.00000001
 43
0.00000001
 40
0.0
 40
0.0
 40
0.0
 40
0.0
 40
0.4999399155005524
 40
1.0
 40
1.0
 40
1.0
 40
1.0
 10
2825.76934801202
 20
6743.190506604432
 30
0.0
 10
2825.769140907726
 20
6743.194324545907
 30
0.0
 10
2825.768726649356
 20
6743.201961346566
 30
0.0
 10
2825.768657495365
 20
6743.209906725328
 30
0.0
 10
2825.768622914214
 20
6743.213879892102
 30
0.0
  0
SPLINE
  5
1F7
330
1F
100
AcDbEntity
  8
0
  6
Continuous
 62
     7
370
    25
100
AcDbSpline
210
0.0
220
0.0
230
1.0
 70
     8
 71
     3
 72
     9
 73
     5
 74
     0
 42
0.00000001
 43
0.00000001
 40
0.0
 40
0.0
 40
0.0
 40
0.0
 40
0.5003682129157824
 40
1.0
 40
1.0
 40
1.0
 40
1.0
 10
2825.768622914214
 20
6743.213879892102
 30
0.0
 10
2825.768680882858
 20
6743.220546985806
 30
0.0
 10
2825.76879673483
 20
6743.233871360799
 30
0.0
 10
2825.770245795122
 20
6743.244718752198
 30
0.0
 10
2825.770969791705
 20
6743.250138453746
 30
0.0
  0
SPLINE
  5
1F8
330
1F
100
AcDbEntity
  8
0
  6
Continuous
 62
     7
370
    25
100
AcDbSpline
210
0.0
220
0.0
230
1.0
 70
     8
 71
     3
 72
    11
 73
     7
 74
     0
 42
0.00000001
 43
0.00000001
 40
0.0
 40
0.0
 40
0.0
 40
0.0
 40
0.2502556926832045
 40
0.5000591285672848
 40
0.7497998166586385
 40
1.0
 40
1.0
 40
1.0
 40
1.0
 10
2825.770969791705
 20
6743.250138453746
 30
0.0
 10
2825.771559397664
 20
6743.254073589826
 30
0.0
 10
2825.772737544059
 20
6743.261936750493
 30
0.0
 10
2825.775137411202
 20
6743.270236770912
 30
0.0
 10
2825.777829358164
 20
6743.275647327614
 30
0.0
 10
2825.779748748073
 20
6743.276021434075
 30
0.0
 10
2825.780709325083
 20
6743.276208659226
 30
0.0
  0
LINE
  5
1F9
330
1F
100
AcDbEntity
  8
0
  6
Continuous
 62
     7
370
    25
100
AcDbLine
 10
2825.9550209803
 20
6743.2561316044
 30
0.0
 11
2825.9598579083
 21
6743.2561316044
 31
0.0
  0
LINE
  5
1FA
330
1F
100
AcDbEntity
  8
0
  6
Continuous
 62
     7
370
    25
100
AcDbLine
 10
2825.9666381126
 20
6743.2762086592
 30
0.0
 11
2825.9714704398
 21
6743.2762086592
 31
0.0
  0
LINE
  5
1FB
330
1F
100
AcDbEntity
  8
0
  6
Continuous
 62
     7
370
    25
100
AcDbLine
 10
2825.9516877882
 20
6741.891790851
 30
0.0
 11
2825.9565260363
 21
6741.891790851
 31
0.0
  0
LINE
  5
1FC
330
1F
100
AcDbEntity
  8
0
  6
Continuous
 62
     7
370
    25
100
AcDbLine
 10
2825.8662007674
 20
6742.6640083168
 30
0.0
 11
2825.8710728717
 21
6742.6640083168
 31
0.0
  0
LINE
  5
1FD
330
1F
100
AcDbEntity
  8
0
  6
Continuous
 62
     7
370
    25
100
AcDbLine
 10
2825.8658641424
 20
6742.4701298921
 30
0.0
 11
2825.87073638
 21
6742.4701298921
 31
0.0
  0
LINE
  5
1FE
330
1F
100
AcDbEntity
  8
0
  6
Continuous
 62
     7
370
    25
100
AcDbLine
 10
2825.8483365561
 20
6742.5666196181
 30
0.0
 11
2825.8532157354
 21
6742.5666196181
 31
0.0
  0
LINE
  5
1FF
330
1F
100
AcDbEntity
  8
0
  6
Continuous
 62
     7
370
    25
100
AcDbLine
 10
2825.7664505265
 20
6741.9595134537
 30
0.0
 11
2825.7713621358
 21
6741.9595134537
 31
0.0
  0
LINE
  5
200
330
1F
100
AcDbEntity
  8
0
  6
Continuous
 62
     7
370
    25
100
AcDbLine
 10
2825.7644356047
 20
6743.1905066044
 30
0.0
 11
2825.769348012
 21
6743.1905066044
 31
0.0
  0
LINE
  5
201
330
1F
100
AcDbEntity
  8
0
  6
Continuous
 62
     7
370
    25
100
AcDbLine
 10
2825.7660580269
 20
6743.2501384537
 30
0.0
 11
2825.7709697917
 21
6743.2501384537
 31
0.0
  0
LINE
  5
202
330
1F
100
AcDbEntity
  8
0
  6
Continuous
 62
     7
370
    25
100
AcDbLine
 10
2825.7758014191
 20
6743.2762086592
 30
0.0
 11
2825.7807093251
 21
6743.2762086592
 31
0.0
  0
LINE
  5
203
330
1F
100
AcDbEntity
  8
0
  6
Continuous
 62
     7
370
    25
100
AcDbLine
 10
2825.7717543961
 20
6741.8600271524
 30
0.0
 11
2825.7766639049
 21
6741.8600271524
 31
0.0
  0
LINE
  5
204
330
1F
100
AcDbEntity
  8
0
  6
Continuous
 62
     7
370
    25
100
AcDbLine
 10
2825.7757441744
 20
6741.857030577
 30
0.0
 11
2825.7806521031
 21
6741.857030577
 31
0.0
  0
LINE
  5
205
330
1F
100
AcDbEntity
  8
0
  6
Continuous
 62
     7
370
    25
100
AcDbLine
 10
2825.7637102196
 20
6741.9082720154
 30
0.0
 11
2825.7686229142
 21
6741.9082720154
 31
0.0
  0
LINE
  5
206
330
1F
100
AcDbEntity
  8
0
  6
Continuous
 62
     7
370
    25
100
AcDbLine
 10
2825.7637102196
 20
6743.2138798921
 30
0.0
 11
2825.7686229142
 21
6743.2138798921
 31
0.0
  0
LINE
  5
207
330
1F
100
AcDbEntity
  8
0
  6
Continuous
 62
     7
370
    25
100
AcDbLine
 10
2825.6761999229
 20
6742.6640083168
 30
0.0
 11
2825.7343560713
 21
6743.2561316044
 31
0.0
  0
SPLINE
  5
208
330
1F
100
AcDbEntity
  8
0
  6
Continuous
 62
     7
370
    25
100
AcDbSpline
210
0.0
220
0.0
230
1.0
 70
     8
 71
     3
 72
     9
 73
     5
 74
     0
 42
0.00000001
 43
0.00000001
 40
0.0
 40
0.0
 40
0.0
 40
0.0
 40
0.5018528075877338
 40
1.0
 40
1.0
 40
1.0
 40
1.0
 10
2825.734356071327
 20
6743.256131604431
 30
0.0
 10
2825.735524455403
 20
6743.261306068028
 30
0.0
 10
2825.737852596362
 20
6743.271616787664
 30
0.0
 10
2825.740772472435
 20
6743.274681821317
 30
0.0
 10
2825.742227000503
 20
6743.276208659226
 30
0.0
  0
SPLINE
  5
209
330
1F
100
AcDbEntity
  8
0
  6
Continuous
 62
     7
370
    25
100
AcDbSpline
210
0.0
220
0.0
230
1.0
 70
     8
 71
     3
 72
     9
 73
     5
 74
     0
 42
0.00000001
 43
0.00000001
 40
0.0
 40
0.0
 40
0.0
 40
0.0
 40
0.4998675798204376
 40
1.0
 40
1.0
 40
1.0
 40
1.0
 10
2825.739516108092
 20
6741.857030577034
 30
0.0
 10
2825.738078574892
 20
6741.861419441466
 30
0.0
 10
2825.735202746856
 20
6741.870199495643
 30
0.0
 10
2825.733139660827
 20
6741.88459246194
 30
0.0
 10
2825.732107844618
 20
6741.891790851007
 30
0.0
  0
LINE
  5
20A
330
1F
100
AcDbEntity
  8
0
  6
Continuous
 62
     7
370
    25
100
AcDbLine
 10
2825.7321078446
 20
6741.891790851
 30
0.0
 11
2825.6759872944
 21
6742.4701298921
 31
0.0
  0
LINE
  5
20B
330
1F
100
AcDbEntity
  8
0
  6
Continuous
 62
     7
370
    25
100
AcDbLine
 10
2825.6218572097
 20
6741.857030577
 30
0.0
 11
2825.6196134212
 21
6741.8600271524
 31
0.0
  0
SPLINE
  5
20C
330
1F
100
AcDbEntity
  8
0
  6
Continuous
 62
     7
370
    25
100
AcDbSpline
210
0.0
220
0.0
230
1.0
 70
     8
 71
     3
 72
    10
 73
     6
 74
     0
 42
0.00000001
 43
0.00000001
 40
0.0
 40
0.0
 40
0.0
 40
0.0
 40
0.2502840380224724
 40
0.4999128011860317
 40
1.0
 40
1.0
 40
1.0
 40
1.0
 10
2825.619613421213
 20
6741.860027152376
 30
0.0
 10
2825.619022781612
 20
6741.861491565711
 30
0.0
 10
2825.617843048778
 20
6741.864416558364
 30
0.0
 10
2825.616075883697
 20
6741.880935532976
 30
0.0
 10
2825.615512889578
 20
6741.897333793
 30
0.0
 10
2825.615137352485
 20
6741.90827201539
 30
0.0
  0
SPLINE
  5
20D
330
1F
100
AcDbEntity
  8
0
  6
Continuous
 62
     7
370
    25
100
AcDbSpline
210
0.0
220
0.0
230
1.0
 70
     8
 71
     3
 72
     9
 73
     5
 74
     0
 42
0.00000001
 43
0.00000001
 40
0.0
 40
0.0
 40
0.0
 40
0.0
 40
0.5000617086092588
 40
1.0
 40
1.0
 40
1.0
 40
1.0
 10
2825.615137352485
 20
6741.90827201539
 30
0.0
 10
2825.61518805787
 20
6741.917371535134
 30
0.0
 10
2825.615289456126
 20
6741.935568328825
 30
0.0
 10
2825.616199740267
 20
6741.951532402187
 30
0.0
 10
2825.616654826166
 20
6741.959513453747
 30
0.0
  0
LINE
  5
20E
330
1F
100
AcDbEntity
  8
0
  6
Continuous
 62
     7
370
    25
100
AcDbLine
 10
2825.6166548262
 20
6741.9595134537
 30
0.0
 11
2825.6650104766
 21
6742.5666196181
 31
0.0
  0
LINE
  5
20F
330
1F
100
AcDbEntity
  8
0
  6
Continuous
 62
     7
370
    25
100
AcDbLine
 10
2825.6650104766
 20
6742.5666196181
 30
0.0
 11
2825.6155382928
 21
6743.1905066044
 31
0.0
  0
SPLINE
  5
210
330
1F
100
AcDbEntity
  8
0
  6
Continuous
 62
     7
370
    25
100
AcDbSpline
210
0.0
220
0.0
230
1.0
 70
     8
 71
     3
 72
     9
 73
     5
 74
     0
 42
0.00000001
 43
0.00000001
 40
0.0
 40
0.0
 40
0.0
 40
0.0
 40
0.499939915500579
 40
1.0
 40
1.0
 40
1.0
 40
1.0
 10
2825.61553829279
 20
6743.190506604432
 30
0.0
 10
2825.61542374896
 20
6743.194324545907
 30
0.0
 10
2825.615194633768
 20
6743.201961346566
 30
0.0
 10
2825.615156447775
 20
6743.209906725328
 30
0.0
 10
2825.615137352485
 20
6743.213879892102
 30
0.0
  0
SPLINE
  5
211
330
1F
100
AcDbEntity
  8
0
  6
Continuous
 62
     7
370
    25
100
AcDbSpline
210
0.0
220
0.0
230
1.0
 70
     8
 71
     3
 72
     9
 73
     5
 74
     0
 42
0.00000001
 43
0.00000001
 40
0.0
 40
0.0
 40
0.0
 40
0.0
 40
0.5003682129158804
 40
0.9999999999999999
 40
0.9999999999999999
 40
0.9999999999999999
 40
0.9999999999999999
 10
2825.615137352485
 20
6743.213879892102
 30
0.0
 10
2825.61516921434
 20
6743.220546985806
 30
0.0
 10
2825.615232891157
 20
6743.233871360799
 30
0.0
 10
2825.616035830628
 20
6743.244718752198
 30
0.0
 10
2825.616437004712
 20
6743.250138453746
 30
0.0
  0
SPLINE
  5
212
330
1F
100
AcDbEntity
  8
0
  6
Continuous
 62
     7
370
    25
100
AcDbSpline
210
0.0
220
0.0
230
1.0
 70
     8
 71
     3
 72
    11
 73
     7
 74
     0
 42
0.00000001
 43
0.00000001
 40
0.0
 40
0.0
 40
0.0
 40
0.0
 40
0.25025569268308
 40
0.5000591285672921
 40
0.7497998166587738
 40
1.0
 40
1.0
 40
1.0
 40
1.0
 10
2825.616437004712
 20
6743.250138453746
 30
0.0
 10
2825.616764465311
 20
6743.254073589827
 30
0.0
 10
2825.617418794732
 20
6743.261936750493
 30
0.0
 10
2825.618757730495
 20
6743.270236770912
 30
0.0
 10
2825.620265875657
 20
6743.275647327614
 30
0.0
 10
2825.621347970173
 20
6743.276021434075
 30
0.0
 10
2825.621889514707
 20
6743.276208659226
 30
0.0
  0
LINE
  5
213
330
1F
100
AcDbEntity
  8
0
  6
Continuous
 62
     7
370
    25
100
AcDbLine
 10
2825.7294298003
 20
6743.2561316044
 30
0.0
 11
2825.7343560713
 21
6743.2561316044
 31
0.0
  0
LINE
  5
214
330
1F
100
AcDbEntity
  8
0
  6
Continuous
 62
     7
370
    25
100
AcDbLine
 10
2825.7373038479
 20
6743.2762086592
 30
0.0
 11
2825.7422270005
 21
6743.2762086592
 31
0.0
  0
LINE
  5
215
330
1F
100
AcDbEntity
  8
0
  6
Continuous
 62
     7
370
    25
100
AcDbLine
 10
2825.7271806829
 20
6741.891790851
 30
0.0
 11
2825.7321078446
 21
6741.891790851
 31
0.0
  0
LINE
  5
216
330
1F
100
AcDbEntity
  8
0
  6
Continuous
 62
     7
370
    25
100
AcDbLine
 10
2825.6712506106
 20
6742.6640083168
 30
0.0
 11
2825.6761999229
 21
6742.6640083168
 31
0.0
  0
LINE
  5
217
330
1F
100
AcDbEntity
  8
0
  6
Continuous
 62
     7
370
    25
100
AcDbLine
 10
2825.6710378979
 20
6742.4701298921
 30
0.0
 11
2825.6759872944
 21
6742.4701298921
 31
0.0
  0
LINE
  5
218
330
1F
100
AcDbEntity
  8
0
  6
Continuous
 62
     7
370
    25
100
AcDbLine
 10
2825.6105649466
 20
6743.1905066044
 30
0.0
 11
2825.6155382928
 21
6743.1905066044
 31
0.0
  0
LINE
  5
219
330
1F
100
AcDbEntity
  8
0
  6
Continuous
 62
     7
370
    25
100
AcDbLine
 10
2825.6600567311
 20
6742.5666196181
 30
0.0
 11
2825.6650104766
 21
6742.5666196181
 31
0.0
  0
LINE
  5
21A
330
1F
100
AcDbEntity
  8
0
  6
Continuous
 62
     7
370
    25
100
AcDbLine
 10
2825.6116819223
 20
6741.9595134537
 30
0.0
 11
2825.6166548262
 21
6741.9595134537
 31
0.0
  0
LINE
  5
21B
330
1F
100
AcDbEntity
  8
0
  6
Continuous
 62
     7
370
    25
100
AcDbLine
 10
2825.6114640146
 20
6743.2501384537
 30
0.0
 11
2825.6164370047
 21
6743.2501384537
 31
0.0
  0
LINE
  5
21C
330
1F
100
AcDbEntity
  8
0
  6
Continuous
 62
     7
370
    25
100
AcDbLine
 10
2825.6169186848
 20
6743.2762086592
 30
0.0
 11
2825.6218895147
 21
6743.2762086592
 31
0.0
  0
LINE
  5
21D
330
1F
100
AcDbEntity
  8
0
  6
Continuous
 62
     7
370
    25
100
AcDbLine
 10
2825.6146416896
 20
6741.8600271524
 30
0.0
 11
2825.6196134212
 21
6741.8600271524
 31
0.0
  0
LINE
  5
21E
330
1F
100
AcDbEntity
  8
0
  6
Continuous
 62
     7
370
    25
100
AcDbLine
 10
2825.616886367
 20
6741.857030577
 30
0.0
 11
2825.6218572097
 21
6741.857030577
 31
0.0
  0
LINE
  5
21F
330
1F
100
AcDbEntity
  8
0
  6
Continuous
 62
     7
370
    25
100
AcDbLine
 10
2825.6101638474
 20
6741.9082720154
 30
0.0
 11
2825.6151373525
 21
6741.9082720154
 31
0.0
  0
LINE
  5
220
330
1F
100
AcDbEntity
  8
0
  6
Continuous
 62
     7
370
    25
100
AcDbLine
 10
2825.6101638474
 20
6743.2138798921
 30
0.0
 11
2825.6151373525
 21
6743.2138798921
 31
0.0
  0
LINE
  5
221
330
1F
100
AcDbEntity
  8
0
  6
Continuous
 62
     7
370
    25
100
AcDbLine
 10
2825.5697458495
 20
6742.6640083168
 30
0.0
 11
2825.5968614802
 21
6743.2561316044
 31
0.0
  0
SPLINE
  5
222
330
1F
100
AcDbEntity
  8
0
  6
Continuous
 62
     7
370
    25
100
AcDbSpline
210
0.0
220
0.0
230
1.0
 70
     8
 71
     3
 72
     9
 73
     5
 74
     0
 42
0.00000001
 43
0.00000001
 40
0.0
 40
0.0
 40
0.0
 40
0.0
 40
0.5018528075876526
 40
0.9999999999999999
 40
0.9999999999999999
 40
0.9999999999999999
 40
0.9999999999999999
 10
2825.596861480168
 20
6743.256131604431
 30
0.0
 10
2825.597461197756
 20
6743.261306068028
 30
0.0
 10
2825.598656204694
 20
6743.271616787664
 30
0.0
 10
2825.600177344893
 20
6743.274681821317
 30
0.0
 10
2825.600935096612
 20
6743.276208659226
 30
0.0
  0
SPLINE
  5
223
330
1F
100
AcDbEntity
  8
0
  6
Continuous
 62
     7
370
    25
100
AcDbSpline
210
0.0
220
0.0
230
1.0
 70
     8
 71
     3
 72
     9
 73
     5
 74
     0
 42
0.00000001
 43
0.00000001
 40
0.0
 40
0.0
 40
0.0
 40
0.0
 40
0.499867579820701
 40
1.0
 40
1.0
 40
1.0
 40
1.0
 10
2825.599523080405
 20
6741.857030577034
 30
0.0
 10
2825.598779259205
 20
6741.861419441466
 30
0.0
 10
2825.597291222713
 20
6741.870199495643
 30
0.0
 10
2825.596239041628
 20
6741.88459246194
 30
0.0
 10
2825.595712811755
 20
6741.891790851007
 30
0.0
  0
LINE
  5
224
330
1F
100
AcDbEntity
  8
0
  6
Continuous
 62
     7
370
    25
100
AcDbLine
 10
2825.5957128118
 20
6741.891790851
 30
0.0
 11
2825.5696585891
 21
6742.4701298921
 31
0.0
  0
LINE
  5
225
330
1F
100
AcDbEntity
  8
0
  6
Continuous
 62
     7
370
    25
100
AcDbLine
 10
2825.5507878522
 20
6741.9595134537
 30
0.0
 11
2825.5653032919
 21
6742.5666196181
 31
0.0
  0
LINE
  5
226
330
1F
100
AcDbEntity
  8
0
  6
Continuous
 62
     7
370
    25
100
AcDbLine
 10
2825.5653032919
 20
6742.5666196181
 30
0.0
 11
2825.5528811821
 21
6743.0928820191
 31
0.0
  0
LINE
  5
227
330
1F
100
AcDbEntity
  8
0
  6
Continuous
 62
     7
370
    25
100
AcDbLine
 10
2825.5918807343
 20
6743.2561316044
 30
0.0
 11
2825.5968614802
 21
6743.2561316044
 31
0.0
  0
LINE
  5
228
330
1F
100
AcDbEntity
  8
0
  6
Continuous
 62
     7
370
    25
100
AcDbLine
 10
2825.5959559647
 20
6743.2762086592
 30
0.0
 11
2825.6009350966
 21
6743.2762086592
 31
0.0
  0
LINE
  5
229
330
1F
100
AcDbEntity
  8
0
  6
Continuous
 62
     7
370
    25
100
AcDbLine
 10
2825.5907316108
 20
6741.891790851
 30
0.0
 11
2825.5957128118
 21
6741.891790851
 31
0.0
  0
LINE
  5
22A
330
1F
100
AcDbEntity
  8
0
  6
Continuous
 62
     7
370
    25
100
AcDbLine
 10
2825.5457888521
 20
6741.9595134537
 30
0.0
 11
2825.5507878522
 21
6741.9595134537
 31
0.0
  0
LINE
  5
22B
330
1F
100
AcDbEntity
  8
0
  6
Continuous
 62
     7
370
    25
100
AcDbLine
 10
2825.5455777283
 20
6743.1905066044
 30
0.0
 11
2825.5505768121
 21
6743.1905066044
 31
0.0
  0
LINE
  5
22C
330
1F
100
AcDbEntity
  8
0
  6
Continuous
 62
     7
370
    25
100
AcDbLine
 10
2825.5457470785
 20
6743.2501384537
 30
0.0
 11
2825.5507460951
 21
6743.2501384537
 31
0.0
  0
LINE
  5
22D
330
1F
100
AcDbEntity
  8
0
  6
Continuous
 62
     7
370
    25
100
AcDbLine
 10
2825.5468744187
 20
6743.2762086592
 30
0.0
 11
2825.5518729889
 21
6743.2762086592
 31
0.0
  0
LINE
  5
22E
330
1F
100
AcDbEntity
  8
0
  6
Continuous
 62
     7
370
    25
100
AcDbLine
 10
2825.5463835676
 20
6741.8600271524
 30
0.0
 11
2825.5513823322
 21
6741.8600271524
 31
0.0
  0
LINE
  5
22F
330
1F
100
AcDbEntity
  8
0
  6
Continuous
 62
     7
370
    25
100
AcDbLine
 10
2825.5468672564
 20
6741.857030577
 30
0.0
 11
2825.5518658294
 21
6741.857030577
 31
0.0
  0
LINE
  5
230
330
1F
100
AcDbEntity
  8
0
  6
Continuous
 62
     7
370
    25
100
AcDbLine
 10
2825.5455037541
 20
6741.9082720154
 30
0.0
 11
2825.5505028671
 21
6741.9082720154
 31
0.0
  0
LINE
  5
231
330
1F
100
AcDbEntity
  8
0
  6
Continuous
 62
     7
370
    25
100
AcDbLine
 10
2825.5455037541
 20
6743.2138798921
 30
0.0
 11
2825.5505028671
 21
6743.2138798921
 31
0.0
  0
LINE
  5
232
330
1F
100
AcDbEntity
  8
0
  6
Continuous
 62
     7
370
    25
100
AcDbLine
 10
2825.7932641075
 20
6811.2378524948
 30
0.0
 11
2825.7932641075
 21
6812.2378524948
 31
0.0
  0
LINE
  5
233
330
1F
100
AcDbEntity
  8
0
  6
Continuous
 62
     7
370
    25
100
AcDbLine
 10
2882.6682641075
 20
6787.9628524948
 30
0.0
 11
2882.6682641075
 21
6792.5628524948
 31
0.0
  0
LINE
  5
234
330
1F
100
AcDbEntity
  8
0
  6
Continuous
 62
     7
370
    25
100
AcDbLine
 10
2882.6682641075
 20
6787.9628524948
 30
0.0
 11
2873.3182641075
 21
6778.6128524948
 31
0.0
  0
LINE
  5
235
330
1F
100
AcDbEntity
  8
0
  6
Continuous
 62
     7
370
    25
100
AcDbLine
 10
2883.1682641075
 20
6788.4628524948
 30
0.0
 11
2883.1682641075
 21
6792.0628524948
 31
0.0
  0
LINE
  5
236
330
1F
100
AcDbEntity
  8
0
  6
Continuous
 62
     7
370
    25
100
AcDbLine
 10
2883.1682641075
 20
6788.4628524948
 30
0.0
 11
2882.6682641075
 21
6787.9628524948
 31
0.0
  0
LINE
  5
237
330
1F
100
AcDbEntity
  8
0
  6
Continuous
 62
     7
370
    25
100
AcDbLine
 10
2853.1682641075
 20
6737.8680159617
 30
0.0
 11
2823.1682641075
 21
6737.8680159617
 31
0.0
  0
LINE
  5
238
330
1F
100
AcDbEntity
  8
0
  6
Continuous
 62
     7
370
    25
100
AcDbLine
 10
2823.4097455641
 20
6738.2862741135
 30
0.0
 11
2852.9267826509
 21
6738.2862741135
 31
0.0
  0
LINE
  5
239
330
1F
100
AcDbEntity
  8
0
  6
Continuous
 62
     7
370
    25
100
AcDbLine
 10
2837.596828541
 20
6736.8378524948
 30
0.0
 11
2823.1682641075
 21
6736.8378524948
 31
0.0
  0
LINE
  5
23A
330
1F
100
AcDbEntity
  8
0
  6
Continuous
 62
     7
370
    25
100
AcDbLine
 10
2853.1682641075
 20
6736.8378524948
 30
0.0
 11
2837.596828541
 21
6736.8378524948
 31
0.0
  0
LINE
  5
23B
330
1F
100
AcDbEntity
  8
0
  6
Continuous
 62
     7
370
    25
100
AcDbLine
 10
2837.6844486612
 20
6738.8378524948
 30
0.0
 11
2825.4682641075
 21
6738.8378524948
 31
0.0
  0
LINE
  5
23C
330
1F
100
AcDbEntity
  8
0
  6
Continuous
 62
     7
370
    25
100
AcDbLine
 10
2850.8682641075
 20
6738.8378524948
 30
0.0
 11
2837.6844486612
 21
6738.8378524948
 31
0.0
  0
LINE
  5
23D
330
1F
100
AcDbEntity
  8
0
  6
Continuous
 62
     7
370
    25
100
AcDbLine
 10
2708.1929880313
 20
6654.4074582848
 30
0.0
 11
2708.1824523682
 21
6654.4179939479
 31
0.0
  0
LINE
  5
23E
330
1F
100
AcDbEntity
  8
0
  6
Continuous
 62
     7
370
    25
100
AcDbLine
 10
2700.7074523682
 20
6631.7302894045
 30
0.0
 11
2700.7074523682
 21
6599.9179939479
 31
0.0
  0
LINE
  5
23F
330
1F
100
AcDbEntity
  8
0
  6
Continuous
 62
     7
370
    25
100
AcDbLine
 10
2714.6574523682
 20
6599.9179939479
 30
0.0
 11
2714.6574523682
 21
6631.7302894045
 31
0.0
  0
ARC
  5
240
330
1F
100
AcDbEntity
  8
0
  6
Continuous
 62
     7
370
    25
100
AcDbCircle
 10
2707.3064985948
 20
6642.5786305396
 30
0.0
 40
0.3338093443285288
100
AcDbArc
 50
180.0
 51
0.0
  0
LINE
  5
241
330
1F
100
AcDbEntity
  8
0
  6
Continuous
 62
     7
370
    25
100
AcDbLine
 10
2707.6403079391
 20
6644.0491463069
 30
0.0
 11
2707.6403079391
 21
6642.5786305396
 31
0.0
  0
ARC
  5
242
330
1F
100
AcDbEntity
  8
0
  6
Continuous
 62
     7
370
    25
100
AcDbCircle
 10
2707.7603629973
 20
6644.0491463069
 30
0.0
 40
0.1200550581443167
100
AcDbArc
 50
90.0
 51
180.0
  0
LINE
  5
243
330
1F
100
AcDbEntity
  8
0
  6
Continuous
 62
     7
370
    25
100
AcDbLine
 10
2708.0725695867
 20
6644.169201365
 30
0.0
 11
2707.7603629973
 21
6644.169201365
 31
0.0
  0
ARC
  5
244
330
1F
100
AcDbEntity
  8
0
  6
Continuous
 62
     7
370
    25
100
AcDbCircle
 10
2708.0725695867
 20
6644.0491463069
 30
0.0
 40
0.1200550581443167
100
AcDbArc
 50
0.0
 51
90.0
  0
LINE
  5
245
330
1F
100
AcDbEntity
  8
0
  6
Continuous
 62
     7
370
    25
100
AcDbLine
 10
2708.1926246449
 20
6642.5786305396
 30
0.0
 11
2708.1926246449
 21
6644.0491463069
 31
0.0
  0
ARC
  5
246
330
1F
100
AcDbEntity
  8
0
  6
Continuous
 62
     7
370
    25
100
AcDbCircle
 10
2708.5264339892
 20
6642.5786305396
 30
0.0
 40
0.3338093443285288
100
AcDbArc
 50
180.0
 51
0.0
  0
LINE
  5
247
330
1F
100
AcDbEntity
  8
0
  6
Continuous
 62
     7
370
    25
100
AcDbLine
 10
2708.8602433335
 20
6643.7945691893
 30
0.0
 11
2708.8602433335
 21
6642.5786305396
 31
0.0
  0
ARC
  5
248
330
1F
100
AcDbEntity
  8
0
  6
Continuous
 62
     7
370
    25
100
AcDbCircle
 10
2708.9802983917
 20
6643.7945691893
 30
0.0
 40
0.1200550581434072
100
AcDbArc
 50
90.0
 51
180.0
  0
LINE
  5
249
330
1F
100
AcDbEntity
  8
0
  6
Continuous
 62
     7
370
    25
100
AcDbLine
 10
2709.3538581626
 20
6643.9146242475
 30
0.0
 11
2708.9802983917
 21
6643.9146242475
 31
0.0
  0
ARC
  5
24A
330
1F
100
AcDbEntity
  8
0
  6
Continuous
 62
     7
370
    25
100
AcDbCircle
 10
2709.3538581626
 20
6643.7945691893
 30
0.0
 40
0.1200550581434072
100
AcDbArc
 50
0.0
 51
90.0
  0
LINE
  5
24B
330
1F
100
AcDbEntity
  8
0
  6
Continuous
 62
     7
370
    25
100
AcDbLine
 10
2709.4739132208
 20
6642.5786305396
 30
0.0
 11
2709.4739132208
 21
6643.7945691893
 31
0.0
  0
ARC
  5
24C
330
1F
100
AcDbEntity
  8
0
  6
Continuous
 62
     7
370
    25
100
AcDbCircle
 10
2709.8077225651
 20
6642.5786305396
 30
0.0
 40
0.3338093443285288
100
AcDbArc
 50
180.0
 51
0.0
  0
LINE
  5
24D
330
1F
100
AcDbEntity
  8
0
  6
Continuous
 62
     7
370
    25
100
AcDbLine
 10
2710.1415319094
 20
6643.336394035
 30
0.0
 11
2710.1415319094
 21
6642.5786305396
 31
0.0
  0
ARC
  5
24E
330
1F
100
AcDbEntity
  8
0
  6
Continuous
 62
     7
370
    25
100
AcDbCircle
 10
2710.2615869676
 20
6643.336394035
 30
0.0
 40
0.120055058143862
100
AcDbArc
 50
90.0
 51
180.0
  0
LINE
  5
24F
330
1F
100
AcDbEntity
  8
0
  6
Continuous
 62
     7
370
    25
100
AcDbLine
 10
2710.5926008298
 20
6643.4564490931
 30
0.0
 11
2710.2615869676
 21
6643.4564490931
 31
0.0
  0
ARC
  5
250
330
1F
100
AcDbEntity
  8
0
  6
Continuous
 62
     7
370
    25
100
AcDbCircle
 10
2710.5926008298
 20
6643.336394035
 30
0.0
 40
0.120055058143862
100
AcDbArc
 50
0.0
 51
90.0
  0
LINE
  5
251
330
1F
100
AcDbEntity
  8
0
  6
Continuous
 62
     7
370
    25
100
AcDbLine
 10
2710.712655888
 20
6639.3948128946
 30
0.0
 11
2710.712655888
 21
6643.336394035
 31
0.0
  0
ARC
  5
252
330
1F
100
AcDbEntity
  8
0
  6
Continuous
 62
     7
370
    25
100
AcDbCircle
 10
2708.9496556127
 20
6639.3948128946
 30
0.0
 40
1.763000275318973
100
AcDbArc
 50
270.0
 51
0.0
  0
LINE
  5
253
330
1F
100
AcDbEntity
  8
0
  6
Continuous
 62
     7
370
    25
100
AcDbLine
 10
2707.7660434092
 20
6637.6318126193
 30
0.0
 11
2708.9496556127
 21
6637.6318126193
 31
0.0
  0
ARC
  5
254
330
1F
100
AcDbEntity
  8
0
  6
Continuous
 62
     7
370
    25
100
AcDbCircle
 10
2707.7660434092
 20
6640.2782777831
 30
0.0
 40
2.646465163867106
100
AcDbArc
 50
180.0
 51
270.0
  0
LINE
  5
255
330
1F
100
AcDbEntity
  8
0
  6
Continuous
 62
     7
370
    25
100
AcDbLine
 10
2705.1195782453
 20
6642.5013316642
 30
0.0
 11
2705.1195782453
 21
6640.2782777831
 31
0.0
  0
ARC
  5
256
330
1F
100
AcDbEntity
  8
0
  6
Continuous
 62
     7
370
    25
100
AcDbCircle
 10
2704.9479212236
 20
6641.7510104828
 30
0.0
 40
0.7697064429358603
100
AcDbArc
 50
0.0
 51
77.1137478469
  0
LINE
  5
257
330
1F
100
AcDbEntity
  8
0
  6
Continuous
 62
     7
370
    25
100
AcDbLine
 10
2705.7176276666
 20
6640.7738000418
 30
0.0
 11
2705.7176276666
 21
6641.7510104828
 31
0.0
  0
ARC
  5
258
330
1F
100
AcDbEntity
  8
0
  6
Continuous
 62
     7
370
    25
100
AcDbCircle
 10
2706.0514370109
 20
6640.7738000418
 30
0.0
 40
0.3338093443285288
100
AcDbArc
 50
180.0
 51
0.0
  0
ARC
  5
259
330
1F
100
AcDbEntity
  8
0
  6
Continuous
 62
     7
370
    25
100
AcDbCircle
 10
2706.6789678029
 20
6646.4140506767
 30
0.0
 40
0.2937214476223744
100
AcDbArc
 50
0.0
 51
180.0
  0
LINE
  5
25A
330
1F
100
AcDbEntity
  8
0
  6
Continuous
 62
     7
370
    25
100
AcDbLine
 10
2706.9726892505
 20
6642.5786305396
 30
0.0
 11
2706.9726892505
 21
6646.4140506767
 31
0.0
  0
LINE
  5
25B
330
1F
100
AcDbEntity
  8
0
  6
Continuous
 62
     7
370
    25
100
AcDbLine
 10
2706.3852463552
 20
6646.4140506767
 30
0.0
 11
2706.3852463552
 21
6640.7738000418
 31
0.0
  0
CIRCLE
  5
25C
330
1F
100
AcDbEntity
  8
0
  6
Continuous
 62
     7
370
    25
100
AcDbCircle
 10
2707.6824523682
 20
6642.0429939479
 30
0.0
 40
6.25
  0
LINE
  5
25D
330
1F
100
AcDbEntity
  8
0
  6
Continuous
 62
     7
370
    25
100
AcDbLine
 10
2707.4874892505
 20
6644.6411908544
 30
0.0
 11
2707.4874892505
 21
6646.4140506767
 31
0.0
  0
ARC
  5
25E
330
1F
100
AcDbEntity
  8
0
  6
Continuous
 62
     7
370
    25
100
AcDbCircle
 10
2704.9479212236
 20
6641.7510104828
 30
0.0
 40
1.284506442935263
100
AcDbArc
 50
44.0944057145
 51
105.4941474424
  0
LINE
  5
25F
330
1F
100
AcDbEntity
  8
0
  6
Continuous
 62
     7
370
    25
100
AcDbLine
 10
2704.6047782453
 20
6642.9888350658
 30
0.0
 11
2704.6047782453
 21
6640.2782777831
 31
0.0
  0
ARC
  5
260
330
1F
100
AcDbEntity
  8
0
  6
Continuous
 62
     7
370
    25
100
AcDbCircle
 10
2707.7660434092
 20
6640.2782777831
 30
0.0
 40
3.161265163867029
100
AcDbArc
 50
180.0
 51
270.0
  0
LINE
  5
261
330
1F
100
AcDbEntity
  8
0
  6
Continuous
 62
     7
370
    25
100
AcDbLine
 10
2707.7660434092
 20
6637.1170126193
 30
0.0
 11
2708.9496556127
 21
6637.1170126193
 31
0.0
  0
ARC
  5
262
330
1F
100
AcDbEntity
  8
0
  6
Continuous
 62
     7
370
    25
100
AcDbCircle
 10
2708.9496556127
 20
6639.3948128946
 30
0.0
 40
2.277800275318896
100
AcDbArc
 50
270.0
 51
0.0
  0
LINE
  5
263
330
1F
100
AcDbEntity
  8
0
  6
Continuous
 62
     7
370
    25
100
AcDbLine
 10
2711.227455888
 20
6639.3948128946
 30
0.0
 11
2711.227455888
 21
6643.3131981587
 31
0.0
  0
ARC
  5
264
330
1F
100
AcDbEntity
  8
0
  6
Continuous
 62
     7
370
    25
100
AcDbCircle
 10
2710.5506502649
 20
6643.3131981587
 30
0.0
 40
0.6768056231044284
100
AcDbArc
 50
0.0
 51
90.0
  0
LINE
  5
265
330
1F
100
AcDbEntity
  8
0
  6
Continuous
 62
     7
370
    25
100
AcDbLine
 10
2710.5506502649
 20
6643.9900037818
 30
0.0
 11
2710.3035375325
 21
6643.9900037818
 31
0.0
  0
ARC
  5
266
330
1F
100
AcDbEntity
  8
0
  6
Continuous
 62
     7
370
    25
100
AcDbCircle
 10
2710.3035375325
 20
6643.3131981587
 30
0.0
 40
0.6768056231042348
100
AcDbArc
 50
90.0
 51
118.7365577358
  0
ARC
  5
267
330
1F
100
AcDbEntity
  8
0
  6
Continuous
 62
     7
370
    25
100
AcDbCircle
 10
2709.3119075977
 20
6643.7874881204
 30
0.0
 40
0.6768056231040088
100
AcDbArc
 50
10.1404867647
 51
90.0
  0
LINE
  5
268
330
1F
100
AcDbEntity
  8
0
  6
Continuous
 62
     7
370
    25
100
AcDbLine
 10
2709.3119075977
 20
6644.4642937435
 30
0.0
 11
2709.0222489566
 21
6644.4642937435
 31
0.0
  0
ARC
  5
269
330
1F
100
AcDbEntity
  8
0
  6
Continuous
 62
     7
370
    25
100
AcDbCircle
 10
2709.0222489566
 20
6643.7874881204
 30
0.0
 40
0.6768056231048831
100
AcDbArc
 50
90.0
 51
124.744002227
  0
ARC
  5
26A
330
1F
100
AcDbEntity
  8
0
  6
Continuous
 62
     7
370
    25
100
AcDbCircle
 10
2708.0306190218
 20
6644.042065238
 30
0.0
 40
0.6768056231048831
100
AcDbArc
 50
26.4592691593
 51
90.0
  0
LINE
  5
26B
330
1F
100
AcDbEntity
  8
0
  6
Continuous
 62
     7
370
    25
100
AcDbLine
 10
2708.0306190218
 20
6644.7188708611
 30
0.0
 11
2707.8023135622
 21
6644.7188708611
 31
0.0
  0
ARC
  5
26C
330
1F
100
AcDbEntity
  8
0
  6
Continuous
 62
     7
370
    25
100
AcDbCircle
 10
2707.8023135622
 20
6644.042065238
 30
0.0
 40
0.6768056231048831
100
AcDbArc
 50
90.0
 51
117.7207121261
  0
LINE
  5
26D
330
1F
100
AcDbEntity
  8
0
  6
Continuous
 62
     7
370
    25
100
AcDbLine
 10
2705.8704463552
 20
6646.4140506767
 30
0.0
 11
2705.8704463552
 21
6642.6448248838
 31
0.0
  0
ARC
  5
26E
330
1F
100
AcDbEntity
  8
0
  6
Continuous
 62
     7
370
    25
100
AcDbCircle
 10
2706.6789678029
 20
6646.4140506767
 30
0.0
 40
0.8085214476222973
100
AcDbArc
 50
0.0
 51
179.9999999999
  0
CIRCLE
  5
26F
330
1F
100
AcDbEntity
  8
0
  6
Continuous
 62
     7
370
    25
100
AcDbCircle
 10
2707.6824523682
 20
6642.0429939479
 30
0.0
 40
7.0
  0
CIRCLE
  5
270
330
1F
100
AcDbEntity
  8
0
  6
Continuous
 62
     7
370
    25
100
AcDbCircle
 10
2707.6824523682
 20
6642.0429939479
 30
0.0
 40
11.94999999999982
  0
CIRCLE
  5
271
330
1F
100
AcDbEntity
  8
0
  6
Continuous
 62
     7
370
    25
100
AcDbCircle
 10
2707.6824523682
 20
6642.0429939479
 30
0.0
 40
12.44999999999982
  0
LINE
  5
272
330
1F
100
AcDbEntity
  8
0
  6
Continuous
 62
     7
370
    25
100
AcDbLine
 10
2702.2633073114
 20
6653.4457783383
 30
0.0
 11
2702.3169622129
 21
6653.332879483
 31
0.0
  0
ARC
  5
273
330
1F
100
AcDbEntity
  8
0
  6
Continuous
 62
     7
370
    25
100
AcDbCircle
 10
2707.6824523682
 20
6642.0429939479
 30
0.0
 40
12.62500000000081
100
AcDbArc
 50
64.5807116611
 51
115.4192883389
  0
LINE
  5
274
330
1F
100
AcDbEntity
  8
0
  6
Continuous
 62
     7
370
    25
100
AcDbLine
 10
2713.0479425234
 20
6653.332879483
 30
0.0
 11
2713.101597425
 21
6653.4457783383
 31
0.0
  0
ARC
  5
275
330
1F
100
AcDbEntity
  8
0
  6
Continuous
 62
     7
370
    25
100
AcDbCircle
 10
2707.6824523682
 20
6642.0429939479
 30
0.0
 40
12.50000000000082
100
AcDbArc
 50
64.5807116611
 51
115.4192883389
  0
LINE
  5
276
330
1F
100
AcDbEntity
  8
0
  6
Continuous
 62
     7
370
    25
100
AcDbLine
 10
2705.4356068176
 20
6654.466452004
 30
0.0
 11
2705.4364966575
 21
6654.4615318226
 31
0.0
  0
LINE
  5
277
330
1F
100
AcDbEntity
  8
0
  6
Continuous
 62
     7
370
    25
100
AcDbLine
 10
2705.3296532961
 20
6654.4468224507
 30
0.0
 11
2705.3305850977
 21
6654.4419100434
 31
0.0
  0
LINE
  5
278
330
1F
100
AcDbEntity
  8
0
  6
Continuous
 62
     7
370
    25
100
AcDbLine
 10
2705.3334807117
 20
6654.4475478358
 30
0.0
 11
2705.3344109975
 21
6654.4426351412
 31
0.0
  0
LINE
  5
279
330
1F
100
AcDbEntity
  8
0
  6
Continuous
 62
     7
370
    25
100
AcDbLine
 10
2710.6517864193
 20
6654.3138407114
 30
0.0
 11
2710.6506104454
 21
6654.3089809701
 31
0.0
  0
LINE
  5
27A
330
1F
100
AcDbEntity
  8
0
  6
Continuous
 62
     7
370
    25
100
AcDbLine
 10
2707.0266175542
 20
6654.6509480126
 30
0.0
 11
2707.0268772908
 21
6654.6459547635
 31
0.0
  0
LINE
  5
27B
330
1F
100
AcDbEntity
  8
0
  6
Continuous
 62
     7
370
    25
100
AcDbLine
 10
2705.9691592734
 20
6654.5512013243
 30
0.0
 11
2705.9698378053
 21
6654.5462475789
 31
0.0
  0
LINE
  5
27C
330
1F
100
AcDbEntity
  8
0
  6
Continuous
 62
     7
370
    25
100
AcDbLine
 10
2703.8980216567
 20
6654.0874411826
 30
0.0
 11
2703.8995204411
 21
6654.0826711045
 31
0.0
  0
SPLINE
  5
27D
330
1F
100
AcDbEntity
  8
0
  6
Continuous
 62
     7
370
    25
100
AcDbSpline
210
0.0
220
0.0
230
1.0
 70
     8
 71
     3
 72
    12
 73
     8
 74
     0
 42
0.00000001
 43
0.00000001
 40
0.0
 40
0.0
 40
0.0
 40
0.0
 40
0.125381508214972
 40
0.2506859940730946
 40
0.5008455041432531
 40
0.7508581249193897
 40
1.0
 40
1.0
 40
1.0
 40
1.0
 10
2708.439412487583
 20
6654.645280898228
 30
0.0
 10
2708.444421440621
 20
6654.644978638979
 30
0.0
 10
2708.454436269677
 20
6654.644374306163
 30
0.0
 10
2708.483610525423
 20
6654.64256659327
 30
0.0
 10
2708.530915389063
 20
6654.639495715658
 30
0.0
 10
2708.599503796907
 20
6654.634746421642
 30
0.0
 10
2708.654228823011
 20
6654.630512911731
 30
0.0
 10
2708.681543603767
 20
6654.628399849329
 30
0.0
  0
LINE
  5
27E
330
1F
100
AcDbEntity
  8
0
  6
Continuous
 62
     7
370
    25
100
AcDbLine
 10
2708.9913555668
 20
6654.5949329382
 30
0.0
 11
2708.9918741497
 21
6654.5999059727
 31
0.0
  0
LINE
  5
27F
330
1F
100
AcDbEntity
  8
0
  6
Continuous
 62
     7
370
    25
100
AcDbLine
 10
2709.3434148658
 20
6654.5532139133
 30
0.0
 11
2709.3440729334
 21
6654.5581704188
 31
0.0
  0
SPLINE
  5
280
330
1F
100
AcDbEntity
  8
0
  6
Continuous
 62
     7
370
    25
100
AcDbSpline
210
0.0
220
0.0
230
1.0
 70
     8
 71
     3
 72
    12
 73
     8
 74
     0
 42
0.00000001
 43
0.00000001
 40
0.0
 40
0.0
 40
0.0
 40
0.0
 40
0.1253815082149875
 40
0.2506859940730878
 40
0.5008455041432164
 40
0.7508581249193542
 40
1.0
 40
1.0
 40
1.0
 40
1.0
 10
2709.344072933352
 20
6654.558170418814
 30
0.0
 10
2709.349047162769
 20
6654.55750859339
 30
0.0
 10
2709.358992565915
 20
6654.556185349103
 30
0.0
 10
2709.387961179048
 20
6654.552283493469
 30
0.0
 10
2709.434922548189
 20
6654.545817411065
 30
0.0
 10
2709.502991566386
 20
6654.536146100608
 30
0.0
 10
2709.557270230507
 20
6654.527986584102
 30
0.0
 10
2709.584362219597
 20
6654.523913942749
 30
0.0
  0
LINE
  5
281
330
1F
100
AcDbEntity
  8
0
  6
Continuous
 62
     7
370
    25
100
AcDbLine
 10
2711.3942017414
 20
6654.1100375623
 30
0.0
 11
2711.3927317417
 21
6654.1052585351
 31
0.0
  0
LINE
  5
282
330
1F
100
AcDbEntity
  8
0
  6
Continuous
 62
     7
370
    25
100
AcDbLine
 10
2709.3226272587
 20
6654.5559562802
 30
0.0
 11
2709.3232770903
 21
6654.5609138722
 31
0.0
  0
LINE
  5
283
330
1F
100
AcDbEntity
  8
0
  6
Continuous
 62
     7
370
    25
100
AcDbLine
 10
2709.3232770903
 20
6654.5609138722
 30
0.0
 11
2709.3440729334
 21
6654.5581704188
 31
0.0
  0
LINE
  5
284
330
1F
100
AcDbEntity
  8
0
  6
Continuous
 62
     7
370
    25
100
AcDbLine
 10
2709.1894818056
 20
6654.5726891667
 30
0.0
 11
2709.1900788854
 21
6654.5776533882
 31
0.0
  0
LINE
  5
285
330
1F
100
AcDbEntity
  8
0
  6
Continuous
 62
     7
370
    25
100
AcDbLine
 10
2708.2841774292
 20
6654.6486405776
 30
0.0
 11
2708.2844158305
 21
6654.6536348908
 31
0.0
  0
LINE
  5
286
330
1F
100
AcDbEntity
  8
0
  6
Continuous
 62
     7
370
    25
100
AcDbLine
 10
2705.8908156676
 20
6654.5402201575
 30
0.0
 11
2705.8915252267
 21
6654.535270761
 31
0.0
  0
LINE
  5
287
330
1F
100
AcDbEntity
  8
0
  6
Continuous
 62
     7
370
    25
100
AcDbLine
 10
2703.8226246626
 20
6654.0634912373
 30
0.0
 11
2703.8241533072
 21
6654.0587306443
 31
0.0
  0
LINE
  5
288
330
1F
100
AcDbEntity
  8
0
  6
Continuous
 62
     7
370
    25
100
AcDbLine
 10
2711.3535099058
 20
6654.1224791007
 30
0.0
 11
2711.3520560216
 21
6654.1176951462
 31
0.0
  0
LINE
  5
289
330
1F
100
AcDbEntity
  8
0
  6
Continuous
 62
     7
370
    25
100
AcDbLine
 10
2707.5766744962
 20
6654.6675508131
 30
0.0
 11
2707.5767163884
 21
6654.6625509886
 31
0.0
  0
LINE
  5
28A
330
1F
100
AcDbEntity
  8
0
  6
Continuous
 62
     7
370
    25
100
AcDbLine
 10
2708.1725689033
 20
6654.6584769265
 30
0.0
 11
2708.1723747977
 21
6654.6534806956
 31
0.0
  0
LINE
  5
28B
330
1F
100
AcDbEntity
  8
0
  6
Continuous
 62
     7
370
    25
100
AcDbLine
 10
2710.7100030681
 20
6654.2996069287
 30
0.0
 11
2710.7088040381
 21
6654.2947528245
 31
0.0
  0
LINE
  5
28C
330
1F
100
AcDbEntity
  8
0
  6
Continuous
 62
     7
370
    25
100
AcDbLine
 10
2709.0667061377
 20
6654.5868466855
 30
0.0
 11
2709.0672545742
 21
6654.5918165162
 31
0.0
  0
LINE
  5
28D
330
1F
100
AcDbEntity
  8
0
  6
Continuous
 62
     7
370
    25
100
AcDbLine
 10
2701.1242513953
 20
6597.5429939479
 30
0.0
 11
2714.240653341
 21
6597.5429939479
 31
0.0
  0
ARC
  5
28E
330
1F
100
AcDbEntity
  8
0
  6
Continuous
 62
     7
370
    25
100
AcDbCircle
 10
2707.6824523682
 20
6599.9179939479
 30
0.0
 40
6.975000000000364
100
AcDbArc
 50
180.0
 51
199.9074488975
  0
ARC
  5
28F
330
1F
100
AcDbEntity
  8
0
  6
Continuous
 62
     7
370
    25
100
AcDbCircle
 10
2707.6824523682
 20
6599.9179939479
 30
0.0
 40
6.974999999999929
100
AcDbArc
 50
340.0925511025
 51
0.0
  0
LINE
  5
290
330
1F
100
AcDbEntity
  8
0
  6
Continuous
 62
     7
370
    25
100
AcDbLine
 10
2701.8807284864
 20
6597.0429939479
 30
0.0
 11
2713.4841762499
 21
6597.0429939479
 31
0.0
  0
LINE
  5
291
330
1F
100
AcDbEntity
  8
0
  6
Continuous
 62
     7
370
    25
100
AcDbLine
 10
2701.8807284864
 20
6597.0429939479
 30
0.0
 11
2701.1242513953
 21
6597.5429939479
 31
0.0
  0
LINE
  5
292
330
1F
100
AcDbEntity
  8
0
  6
Continuous
 62
     7
370
    25
100
AcDbLine
 10
2714.240653341
 20
6597.5429939479
 30
0.0
 11
2713.4841762499
 21
6597.0429939479
 31
0.0
  0
LWPOLYLINE
  5
293
330
1F
100
AcDbEntity
  8
0
  6
Continuous
 62
     7
370
    25
100
AcDbPolyline
 90
        3
 70
   128
 43
0.0
 10
2707.6824523682
 20
6657.1679939479
 10
2706.0578916055
 20
6656.9926702275
 10
2705.3846749484
 20
6656.8659602887
  0
LWPOLYLINE
  5
294
330
1F
100
AcDbEntity
  8
0
  6
Continuous
 62
     7
370
    25
100
AcDbPolyline
 90
        3
 70
   128
 43
0.0
 10
2709.9803558536
 20
6656.8659335195
 10
2709.3070131309
 20
6656.9926702275
 10
2707.6824523682
 20
6657.1679939479
  0
ARC
  5
295
330
1F
100
AcDbEntity
  8
0
  6
Continuous
 62
     7
370
    25
100
AcDbCircle
 10
2707.6824523682
 20
6642.0429939479
 30
0.0
 40
12.70000000000023
100
AcDbArc
 50
303.3130106878
 51
177.8167486155
  0
ARC
  5
296
330
1F
100
AcDbEntity
  8
0
  6
Continuous
 62
     7
370
    25
100
AcDbCircle
 10
2707.6824523682
 20
6642.0429939479
 30
0.0
 40
12.70000000000023
100
AcDbArc
 50
177.8167486155
 51
236.6869893122
  0
ARC
  5
297
330
1F
100
AcDbEntity
  8
0
  6
Continuous
 62
     7
370
    25
100
AcDbCircle
 10
2707.6824523682
 20
6642.0429939479
 30
0.0
 40
14.75851854342765
100
AcDbArc
 50
357.8167486155
 51
241.7962522017
  0
ARC
  5
298
330
1F
100
AcDbEntity
  8
0
  6
Continuous
 62
     7
370
    25
100
AcDbCircle
 10
2707.6824523682
 20
6642.0429939479
 30
0.0
 40
14.75851854342765
100
AcDbArc
 50
298.2037477983
 51
357.8167486155
  0
ARC
  5
299
330
1F
100
AcDbEntity
  8
0
  6
Continuous
 62
     7
370
    25
100
AcDbCircle
 10
2707.6824523682
 20
6642.0429939479
 30
0.0
 40
14.9999999999998
100
AcDbArc
 50
297.7102220493
 51
357.8167486155
  0
ARC
  5
29A
330
1F
100
AcDbEntity
  8
0
  6
Continuous
 62
     7
370
    25
100
AcDbCircle
 10
2707.6824523682
 20
6642.0429939479
 30
0.0
 40
15.00000000000001
100
AcDbArc
 50
357.8167486155
 51
242.2897779507
  0
ENDSEC
  0
SECTION
  2
OBJECTS
  0
DICTIONARY
  5
C
330
0
100
AcDbDictionary
281
     1
  3
ACAD_GROUP
350
D
  3
ACAD_LAYOUT
350
1A
  3
ACAD_MLINESTYLE
350
17
  3
ACAD_PLOTSETTINGS
350
19
  3
ACAD_PLOTSTYLENAME
350
E
  3
ACAD_SCALELIST
350
47
  3
DWGPROPS
350
29B
  0
DICTIONARY
  5
D
102
{ACAD_REACTORS
330
C
102
}
330
C
100
AcDbDictionary
281
     1
  0
DICTIONARY
  5
1A
102
{ACAD_REACTORS
330
C
102
}
330
C
100
AcDbDictionary
281
     1
  3
Layout1
350
1E
  3
Layout2
350
26
  3
Model
350
22
  0
DICTIONARY
  5
17
102
{ACAD_REACTORS
330
C
102
}
330
C
100
AcDbDictionary
281
     1
  3
Standard
350
18
  0
DICTIONARY
  5
19
102
{ACAD_REACTORS
330
C
102
}
330
C
100
AcDbDictionary
281
     1
  0
ACDBDICTIONARYWDFLT
  5
E
102
{ACAD_REACTORS
330
C
102
}
330
C
100
AcDbDictionary
281
     1
  3
Normal
350
F
100
AcDbDictionaryWithDefault
340
F
  0
DICTIONARY
  5
47
102
{ACAD_REACTORS
330
C
102
}
330
C
100
AcDbDictionary
281
     1
  3
A0
350
48
  3
A1
350
49
  3
A2
350
4A
  3
A3
350
4B
  3
A4
350
4C
  3
A5
350
4D
  3
A6
350
4E
  3
A7
350
4F
  3
A8
350
50
  3
A9
350
51
  3
B0
350
52
  3
B1
350
53
  3
B2
350
54
  3
B3
350
55
  3
B4
350
56
  3
B5
350
57
  3
B6
350
58
  3
B7
350
59
  3
B8
350
5A
  3
B9
350
5B
  3
C0
350
5C
  3
C1
350
5D
  3
C2
350
5E
  3
C3
350
5F
  3
C4
350
60
  3
C5
350
61
  3
C6
350
62
  3
C7
350
63
  3
C8
350
64
  3
C9
350
65
  3
D0
350
66
  3
D1
350
67
  3
D2
350
68
  0
XRECORD
  5
29B
102
{ACAD_REACTORS
330
C
102
}
330
C
100
AcDbXrecord
280
     1
  1
DWGPROPS COOKIE
  2

  3

  4

  6

  7

  8
radek.stransky
  9

300
=
301
=
302
=
303
=
304
=
305
=
306
=
307
=
308
=
309
=
 40
0.0
 41
2459089.43461897
 42
2459089.434619884
  1

 90
        0
  0
LAYOUT
  5
1E
102
{ACAD_REACTORS
330
1A
102
}
330
1A
100
AcDbPlotSettings
  1

  2
none_device
  4

  6

 40
0.0
 41
0.0
 42
0.0
 43
0.0
 44
0.0
 45
0.0
 46
0.0
 47
0.0
 48
0.0
 49
0.0
140
0.0
141
0.0
142
1.0
143
1.0
 70
   688
 72
     1
 73
     0
 74
     5
  7

 75
    16
147
1.0
148
0.0
149
0.0
100
AcDbLayout
  1
Layout1
 70
     1
 71
     1
 10
0.0
 20
0.0
 11
420.0
 21
297.0
 12
0.0
 22
0.0
 32
0.0
 14
1.0000000000E+20
 24
1.0000000000E+20
 34
1.0000000000E+20
 15
-1.0000000000E+20
 25
-1.0000000000E+20
 35
-1.0000000000E+20
146
0.0
 13
0.0
 23
0.0
 33
0.0
 16
1.0
 26
0.0
 36
0.0
 17
0.0
 27
1.0
 37
0.0
 76
     0
330
1B
  0
LAYOUT
  5
26
102
{ACAD_REACTORS
330
1A
102
}
330
1A
100
AcDbPlotSettings
  1

  2
none_device
  4

  6

 40
0.0
 41
0.0
 42
0.0
 43
0.0
 44
0.0
 45
0.0
 46
0.0
 47
0.0
 48
0.0
 49
0.0
140
0.0
141
0.0
142
1.0
143
1.0
 70
   688
 72
     1
 73
     0
 74
     5
  7

 75
    16
147
1.0
148
0.0
149
0.0
100
AcDbLayout
  1
Layout2
 70
     1
 71
     2
 10
0.0
 20
0.0
 11
0.0
 21
0.0
 12
0.0
 22
0.0
 32
0.0
 14
0.0
 24
0.0
 34
0.0
 15
0.0
 25
0.0
 35
0.0
146
0.0
 13
0.0
 23
0.0
 33
0.0
 16
1.0
 26
0.0
 36
0.0
 17
0.0
 27
1.0
 37
0.0
 76
     0
330
23
  0
LAYOUT
  5
22
102
{ACAD_REACTORS
330
1A
102
}
330
1A
100
AcDbPlotSettings
  1

  2
none_device
  4
Letter_(8.50_x_11.00_Inches)
  6

 40
6.35
 41
6.35
 42
6.35000508
 43
6.35000508
 44
215.9
 45
279.4
 46
0.0
 47
0.0
 48
0.0
 49
0.0
140
0.0
141
0.0
142
1.0
143
1.0
 70
  1712
 72
     1
 73
     0
 74
     0
  7

 75
     0
147
1.0
148
0.0
149
0.0
100
AcDbLayout
  1
Model
 70
     1
 71
     0
 10
0.0
 20
0.0
 11
20000.0
 21
10000.0
 12
0.0
 22
0.0
 32
0.0
 14
0.0
 24
0.0
 34
0.0
 15
20000.0
 25
10000.0
 35
0.0
146
0.0
 13
0.0
 23
0.0
 33
0.0
 16
1.0
 26
0.0
 36
0.0
 17
0.0
 27
1.0
 37
0.0
 76
     0
330
1F
331
29
  0
MLINESTYLE
  5
18
102
{ACAD_REACTORS
330
17
102
}
330
17
100
AcDbMlineStyle
  2
Standard
 70
     0
  3

 62
   256
 51
90.0
 52
90.0
 71
     2
 49
0.5
 62
   256
  6
BYLAYER
 49
-0.5
 62
   256
  6
BYLAYER
  0
ACDBPLACEHOLDER
  5
F
102
{ACAD_REACTORS
330
E
102
}
330
E
  0
SCALE
  5
48
102
{ACAD_REACTORS
330
47
102
}
330
47
100
AcDbScale
 70
     0
300
1:1
140
1.0
141
1.0
290
     1
  0
SCALE
  5
49
102
{ACAD_REACTORS
330
47
102
}
330
47
100
AcDbScale
 70
     0
300
1:2
140
1.0
141
2.0
290
     0
  0
SCALE
  5
4A
102
{ACAD_REACTORS
330
47
102
}
330
47
100
AcDbScale
 70
     0
300
1:4
140
1.0
141
4.0
290
     0
  0
SCALE
  5
4B
102
{ACAD_REACTORS
330
47
102
}
330
47
100
AcDbScale
 70
     0
300
1:5
140
1.0
141
5.0
290
     0
  0
SCALE
  5
4C
102
{ACAD_REACTORS
330
47
102
}
330
47
100
AcDbScale
 70
     0
300
1:8
140
1.0
141
8.0
290
     0
  0
SCALE
  5
4D
102
{ACAD_REACTORS
330
47
102
}
330
47
100
AcDbScale
 70
     0
300
1:10
140
1.0
141
10.0
290
     0
  0
SCALE
  5
4E
102
{ACAD_REACTORS
330
47
102
}
330
47
100
AcDbScale
 70
     0
300
1:16
140
1.0
141
16.0
290
     0
  0
SCALE
  5
4F
102
{ACAD_REACTORS
330
47
102
}
330
47
100
AcDbScale
 70
     0
300
1:20
140
1.0
141
20.0
290
     0
  0
SCALE
  5
50
102
{ACAD_REACTORS
330
47
102
}
330
47
100
AcDbScale
 70
     0
300
1:30
140
1.0
141
30.0
290
     0
  0
SCALE
  5
51
102
{ACAD_REACTORS
330
47
102
}
330
47
100
AcDbScale
 70
     0
300
1:40
140
1.0
141
40.0
290
     0
  0
SCALE
  5
52
102
{ACAD_REACTORS
330
47
102
}
330
47
100
AcDbScale
 70
     0
300
1:50
140
1.0
141
50.0
290
     0
  0
SCALE
  5
53
102
{ACAD_REACTORS
330
47
102
}
330
47
100
AcDbScale
 70
     0
300
1:100
140
1.0
141
100.0
290
     0
  0
SCALE
  5
54
102
{ACAD_REACTORS
330
47
102
}
330
47
100
AcDbScale
 70
     0
300
2:1
140
2.0
141
1.0
290
     0
  0
SCALE
  5
55
102
{ACAD_REACTORS
330
47
102
}
330
47
100
AcDbScale
 70
     0
300
4:1
140
4.0
141
1.0
290
     0
  0
SCALE
  5
56
102
{ACAD_REACTORS
330
47
102
}
330
47
100
AcDbScale
 70
     0
300
8:1
140
8.0
141
1.0
290
     0
  0
SCALE
  5
57
102
{ACAD_REACTORS
330
47
102
}
330
47
100
AcDbScale
 70
     0
300
10:1
140
10.0
141
1.0
290
     0
  0
SCALE
  5
58
102
{ACAD_REACTORS
330
47
102
}
330
47
100
AcDbScale
 70
     0
300
100:1
140
100.0
141
1.0
290
     0
  0
SCALE
  5
59
102
{ACAD_REACTORS
330
47
102
}
330
47
100
AcDbScale
 70
     0
300
1/128" = 1'-0"
140
0.0078125
141
12.0
290
     0
  0
SCALE
  5
5A
102
{ACAD_REACTORS
330
47
102
}
330
47
100
AcDbScale
 70
     0
300
1/64" = 1'-0"
140
0.015625
141
12.0
290
     0
  0
SCALE
  5
5B
102
{ACAD_REACTORS
330
47
102
}
330
47
100
AcDbScale
 70
     0
300
1/32" = 1'-0"
140
0.03125
141
12.0
290
     0
  0
SCALE
  5
5C
102
{ACAD_REACTORS
330
47
102
}
330
47
100
AcDbScale
 70
     0
300
1/16" = 1'-0"
140
0.0625
141
12.0
290
     0
  0
SCALE
  5
5D
102
{ACAD_REACTORS
330
47
102
}
330
47
100
AcDbScale
 70
     0
300
3/32" = 1'-0"
140
0.09375
141
12.0
290
     0
  0
SCALE
  5
5E
102
{ACAD_REACTORS
330
47
102
}
330
47
100
AcDbScale
 70
     0
300
1/8" = 1'-0"
140
0.125
141
12.0
290
     0
  0
SCALE
  5
5F
102
{ACAD_REACTORS
330
47
102
}
330
47
100
AcDbScale
 70
     0
300
3/16" = 1'-0"
140
0.1875
141
12.0
290
     0
  0
SCALE
  5
60
102
{ACAD_REACTORS
330
47
102
}
330
47
100
AcDbScale
 70
     0
300
1/4" = 1'-0"
140
0.25
141
12.0
290
     0
  0
SCALE
  5
61
102
{ACAD_REACTORS
330
47
102
}
330
47
100
AcDbScale
 70
     0
300
3/8" = 1'-0"
140
0.375
141
12.0
290
     0
  0
SCALE
  5
62
102
{ACAD_REACTORS
330
47
102
}
330
47
100
AcDbScale
 70
     0
300
1/2" = 1'-0"
140
0.5
141
12.0
290
     0
  0
SCALE
  5
63
102
{ACAD_REACTORS
330
47
102
}
330
47
100
AcDbScale
 70
     0
300
3/4" = 1'-0"
140
0.75
141
12.0
290
     0
  0
SCALE
  5
64
102
{ACAD_REACTORS
330
47
102
}
330
47
100
AcDbScale
 70
     0
300
1" = 1'-0"
140
1.0
141
12.0
290
     0
  0
SCALE
  5
65
102
{ACAD_REACTORS
330
47
102
}
330
47
100
AcDbScale
 70
     0
300
1-1/2" = 1'-0"
140
1.5
141
12.0
290
     0
  0
SCALE
  5
66
102
{ACAD_REACTORS
330
47
102
}
330
47
100
AcDbScale
 70
     0
300
3" = 1'-0"
140
3.0
141
12.0
290
     0
  0
SCALE
  5
67
102
{ACAD_REACTORS
330
47
102
}
330
47
100
AcDbScale
 70
     0
300
6" = 1'-0"
140
6.0
141
12.0
290
     0
  0
SCALE
  5
68
102
{ACAD_REACTORS
330
47
102
}
330
47
100
AcDbScale
 70
     0
300
1'-0" = 1'-0"
140
12.0
141
12.0
290
     0
  0
ENDSEC
  0
EOF
