  0
SECTION
  2
HEADER
  9
$ACADVER
  1
AC1015
  9
$ACADMAINTVER
 70
     6
  9
$DWGCODEPAGE
  3
ANSI_1250
  9
$INSBASE
 10
0.0
 20
0.0
 30
0.0
  9
$EXTMIN
 10
0.0
 20
0.0
 30
0.0
  9
$EXTMAX
 10
20000.0
 20
10000.0
 30
0.0
  9
$LIMMIN
 10
0.0
 20
0.0
  9
$LIMMAX
 10
20000.0
 20
10000.0
  9
$ORTHOMODE
 70
     0
  9
$REGENMODE
 70
     1
  9
$FILLMODE
 70
     1
  9
$QTEXTMODE
 70
     0
  9
$MIRRTEXT
 70
     1
  9
$LTSCALE
 40
1.0
  9
$ATTMODE
 70
     1
  9
$TEXTSIZE
 40
2.0
  9
$TRACEWID
 40
1.0
  9
$TEXTSTYLE
  7
Standard
  9
$CLAYER
  8
0
  9
$CELTYPE
  6
ByLayer
  9
$CECOLOR
 62
   256
  9
$CELTSCALE
 40
1.0
  9
$DISPSILH
 70
     0
  9
$DIMSCALE
 40
1.0
  9
$DIMASZ
 40
2.0
  9
$DIMEXO
 40
1.0
  9
$DIMDLI
 40
3.75
  9
$DIMRND
 40
0.0
  9
$DIMDLE
 40
0.0
  9
$DIMEXE
 40
1.0
  9
$DIMTP
 40
0.0
  9
$DIMTM
 40
0.0
  9
$DIMTXT
 40
2.0
  9
$DIMCEN
 40
2.5
  9
$DIMTSZ
 40
0.0
  9
$DIMTOL
 70
     0
  9
$DIMLIM
 70
     0
  9
$DIMTIH
 70
     1
  9
$DIMTOH
 70
     1
  9
$DIMSE1
 70
     0
  9
$DIMSE2
 70
     0
  9
$DIMTAD
 70
     1
  9
$DIMZIN
 70
     0
  9
$DIMBLK
  1

  9
$DIMASO
 70
     1
  9
$DIMSHO
 70
     1
  9
$DIMPOST
  1

  9
$DIMAPOST
  1

  9
$DIMALT
 70
     0
  9
$DIMALTD
 70
     3
  9
$DIMALTF
 40
0.0393700787
  9
$DIMLFAC
 40
1.0
  9
$DIMTOFL
 70
     1
  9
$DIMTVP
 40
0.0
  9
$DIMTIX
 70
     0
  9
$DIMSOXD
 70
     0
  9
$DIMSAH
 70
     0
  9
$DIMBLK1
  1

  9
$DIMBLK2
  1

  9
$DIMSTYLE
  2
ISO-25
  9
$DIMCLRD
 70
     0
  9
$DIMCLRE
 70
     0
  9
$DIMCLRT
 70
     0
  9
$DIMTFAC
 40
1.0
  9
$DIMGAP
 40
1.524
  9
$DIMJUST
 70
     0
  9
$DIMSD1
 70
     0
  9
$DIMSD2
 70
     0
  9
$DIMTOLJ
 70
     0
  9
$DIMTZIN
 70
     0
  9
$DIMALTZ
 70
     0
  9
$DIMALTTZ
 70
     0
  9
$DIMUPT
 70
     0
  9
$DIMDEC
 70
     2
  9
$DIMTDEC
 70
     0
  9
$DIMALTU
 70
     2
  9
$DIMALTTD
 70
     3
  9
$DIMTXSTY
  7
Standard
  9
$DIMAUNIT
 70
     0
  9
$DIMADEC
 70
     2
  9
$DIMALTRND
 40
0.0
  9
$DIMAZIN
 70
     0
  9
$DIMDSEP
 70
    44
  9
$DIMATFIT
 70
     3
  9
$DIMFRAC
 70
     0
  9
$DIMLDRBLK
  1

  9
$DIMLUNIT
 70
     2
  9
$DIMLWD
 70
    -2
  9
$DIMLWE
 70
    -2
  9
$DIMTMOVE
 70
     0
  9
$LUNITS
 70
     2
  9
$LUPREC
 70
     3
  9
$SKETCHINC
 40
1.0
  9
$FILLETRAD
 40
10.0
  9
$AUNITS
 70
     0
  9
$AUPREC
 70
     2
  9
$MENU
  1
.
  9
$ELEVATION
 40
0.0
  9
$PELEVATION
 40
0.0
  9
$THICKNESS
 40
0.0
  9
$LIMCHECK
 70
     0
  9
$CHAMFERA
 40
0.0
  9
$CHAMFERB
 40
0.0
  9
$CHAMFERC
 40
0.0
  9
$CHAMFERD
 40
0.0
  9
$SKPOLY
 70
     0
  9
$TDCREATE
 40
2459089.513711157
  9
$TDUCREATE
 40
2459089.430377824
  9
$TDUPDATE
 40
2459089.513712199
  9
$TDUUPDATE
 40
2459089.430378866
  9
$TDINDWG
 40
0.0000000116
  9
$TDUSRTIMER
 40
0.0000000116
  9
$USRTIMER
 70
     1
  9
$ANGBASE
 50
0.0
  9
$ANGDIR
 70
     0
  9
$PDMODE
 70
     0
  9
$PDSIZE
 40
-1.0
  9
$PLINEWID
 40
0.0
  9
$SPLFRAME
 70
     0
  9
$SPLINETYPE
 70
     6
  9
$SPLINESEGS
 70
     8
  9
$HANDSEED
  5
262
  9
$SURFTAB1
 70
     6
  9
$SURFTAB2
 70
     6
  9
$SURFTYPE
 70
     6
  9
$SURFU
 70
     6
  9
$SURFV
 70
     6
  9
$UCSBASE
  2

  9
$UCSNAME
  2

  9
$UCSORG
 10
0.0
 20
0.0
 30
0.0
  9
$UCSXDIR
 10
1.0
 20
0.0
 30
0.0
  9
$UCSYDIR
 10
0.0
 20
1.0
 30
0.0
  9
$UCSORTHOREF
  2

  9
$UCSORTHOVIEW
 70
     0
  9
$UCSORGTOP
 10
0.0
 20
0.0
 30
0.0
  9
$UCSORGBOTTOM
 10
0.0
 20
0.0
 30
0.0
  9
$UCSORGLEFT
 10
0.0
 20
0.0
 30
0.0
  9
$UCSORGRIGHT
 10
0.0
 20
0.0
 30
0.0
  9
$UCSORGFRONT
 10
0.0
 20
0.0
 30
0.0
  9
$UCSORGBACK
 10
0.0
 20
0.0
 30
0.0
  9
$PUCSBASE
  2

  9
$PUCSNAME
  2

  9
$PUCSORG
 10
0.0
 20
0.0
 30
0.0
  9
$PUCSXDIR
 10
1.0
 20
0.0
 30
0.0
  9
$PUCSYDIR
 10
0.0
 20
1.0
 30
0.0
  9
$PUCSORTHOREF
  2

  9
$PUCSORTHOVIEW
 70
     0
  9
$PUCSORGTOP
 10
0.0
 20
0.0
 30
0.0
  9
$PUCSORGBOTTOM
 10
0.0
 20
0.0
 30
0.0
  9
$PUCSORGLEFT
 10
0.0
 20
0.0
 30
0.0
  9
$PUCSORGRIGHT
 10
0.0
 20
0.0
 30
0.0
  9
$PUCSORGFRONT
 10
0.0
 20
0.0
 30
0.0
  9
$PUCSORGBACK
 10
0.0
 20
0.0
 30
0.0
  9
$USERI1
 70
     0
  9
$USERI2
 70
     0
  9
$USERI3
 70
     0
  9
$USERI4
 70
     0
  9
$USERI5
 70
     0
  9
$USERR1
 40
0.0
  9
$USERR2
 40
0.0
  9
$USERR3
 40
0.0
  9
$USERR4
 40
0.0
  9
$USERR5
 40
0.0
  9
$WORLDVIEW
 70
     1
  9
$SHADEDGE
 70
     3
  9
$SHADEDIF
 70
    70
  9
$TILEMODE
 70
     1
  9
$MAXACTVP
 70
    64
  9
$PINSBASE
 10
0.0
 20
0.0
 30
0.0
  9
$PLIMCHECK
 70
     0
  9
$PEXTMIN
 10
1.0000000000E+20
 20
1.0000000000E+20
 30
1.0000000000E+20
  9
$PEXTMAX
 10
-1.0000000000E+20
 20
-1.0000000000E+20
 30
-1.0000000000E+20
  9
$PLIMMIN
 10
0.0
 20
0.0
  9
$PLIMMAX
 10
420.0
 20
297.0
  9
$UNITMODE
 70
     0
  9
$VISRETAIN
 70
     1
  9
$PLINEGEN
 70
     0
  9
$PSLTSCALE
 70
     1
  9
$TREEDEPTH
 70
  3020
  9
$CMLSTYLE
  2
Standard
  9
$CMLJUST
 70
     0
  9
$CMLSCALE
 40
20.0
  9
$PROXYGRAPHICS
 70
     1
  9
$MEASUREMENT
 70
     1
  9
$CELWEIGHT
370
    -1
  9
$ENDCAPS
280
     0
  9
$JOINSTYLE
280
     0
  9
$LWDISPLAY
290
     1
  9
$INSUNITS
 70
     4
  9
$HYPERLINKBASE
  1

  9
$STYLESHEET
  1

  9
$XEDIT
290
     1
  9
$CEPSNTYPE
380
     0
  9
$PSTYLEMODE
290
     1
  9
$FINGERPRINTGUID
  2
{67e5c7f6-1f0b-4402-bfdf-d801bcc7ec1f}
  9
$VERSIONGUID
  2
{FAEB1C32-E019-11D5-929B-00C0DF256EC4}
  9
$EXTNAMES
290
     1
  9
$PSVPSCALE
 40
0.0
  9
$OLESTARTUP
290
     0
  0
ENDSEC
  0
SECTION
  2
CLASSES
  0
CLASS
  1
ACDBDICTIONARYWDFLT
  2
AcDbDictionaryWithDefault
  3
ObjectDBX Classes
 90
        0
280
     0
281
     0
  0
CLASS
  1
VISUALSTYLE
  2
AcDbVisualStyle
  3
ObjectDBX Classes
 90
     4095
280
     0
281
     0
  0
CLASS
  1
MATERIAL
  2
AcDbMaterial
  3
ObjectDBX Classes
 90
     1153
280
     0
281
     0
  0
CLASS
  1
SCALE
  2
AcDbScale
  3
ObjectDBX Classes
 90
     1153
280
     0
281
     0
  0
CLASS
  1
TABLESTYLE
  2
AcDbTableStyle
  3
ObjectDBX Classes
 90
     4095
280
     0
281
     0
  0
CLASS
  1
MLEADERSTYLE
  2
AcDbMLeaderStyle
  3
ACDB_MLEADERSTYLE_CLASS
 90
     4095
280
     0
281
     0
  0
CLASS
  1
SUN
  2
AcDbSun
  3
SCENEOE
 90
     1153
280
     0
281
     0
  0
CLASS
  1
ACDBPLACEHOLDER
  2
AcDbPlaceHolder
  3
ObjectDBX Classes
 90
        0
280
     0
281
     0
  0
CLASS
  1
LAYOUT
  2
AcDbLayout
  3
ObjectDBX Classes
 90
        0
280
     0
281
     0
  0
ENDSEC
  0
SECTION
  2
TABLES
  0
TABLE
  2
VPORT
  5
8
330
0
100
AcDbSymbolTable
 70
     1
  0
VPORT
  5
29
330
8
100
AcDbSymbolTableRecord
100
AcDbViewportTableRecord
  2
*Active
 70
     0
 10
0.0
 20
0.0
 11
1.0
 21
1.0
 12
10000.0
 22
5000.0
 13
0.0
 23
0.0
 14
10.0
 24
10.0
 15
10.0
 25
10.0
 16
0.0
 26
0.0
 36
1.0
 17
0.0
 27
0.0
 37
0.0
 40
10000.0
 41
2.0
 42
50.0
 43
0.0
 44
0.0
 50
0.0
 51
0.0
 71
     0
 72
  2000
 73
     1
 74
     3
 75
     0
 76
     0
 77
     0
 78
     0
281
     0
 65
     1
110
0.0
120
0.0
130
0.0
111
1.0
121
0.0
131
0.0
112
0.0
122
1.0
132
0.0
 79
     0
146
0.0
  0
ENDTAB
  0
TABLE
  2
LTYPE
  5
5
330
0
100
AcDbSymbolTable
 70
     6
  0
LTYPE
  5
14
330
5
100
AcDbSymbolTableRecord
100
AcDbLinetypeTableRecord
  2
ByBlock
 70
     0
  3

 72
    65
 73
     0
 40
0.0
  0
LTYPE
  5
15
330
5
100
AcDbSymbolTableRecord
100
AcDbLinetypeTableRecord
  2
ByLayer
 70
     0
  3

 72
    65
 73
     0
 40
0.0
  0
LTYPE
  5
16
330
5
100
AcDbSymbolTableRecord
100
AcDbLinetypeTableRecord
  2
Continuous
 70
     0
  3
Solid line
 72
    65
 73
     0
 40
0.0
  0
LTYPE
  5
6E
330
5
100
AcDbSymbolTableRecord
100
AcDbLinetypeTableRecord
  2
HIDDEN
 70
     0
  3
Hidden __ __ __ __ __ __ __ __ __ __ __ __ __ __
 72
    65
 73
     2
 40
1.905
 49
1.27
 74
     0
 49
-0.635
 74
     0
  0
LTYPE
  5
6F
330
5
100
AcDbSymbolTableRecord
100
AcDbLinetypeTableRecord
  2
PHANTOM
 70
     0
  3
Phantom ______  __  __  ______  __  __  ______
 72
    65
 73
     6
 40
12.7
 49
6.35
 74
     0
 49
-1.27
 74
     0
 49
1.27
 74
     0
 49
-1.27
 74
     0
 49
1.27
 74
     0
 49
-1.27
 74
     0
  0
LTYPE
  5
70
330
5
100
AcDbSymbolTableRecord
100
AcDbLinetypeTableRecord
  2
CENTER
 70
     0
  3
Center ____ _ ____ _ ____ _ ____ _ ____ _ ____
 72
    65
 73
     4
 40
10.16
 49
6.35
 74
     0
 49
-1.27
 74
     0
 49
1.27
 74
     0
 49
-1.27
 74
     0
  0
LTYPE
  5
71
330
5
100
AcDbSymbolTableRecord
100
AcDbLinetypeTableRecord
  2
CENTERX2
 70
     0
  3
Center (2x) ________  __  ________  __  _____
 72
    65
 73
     4
 40
20.32
 49
12.7
 74
     0
 49
-2.54
 74
     0
 49
2.54
 74
     0
 49
-2.54
 74
     0
  0
LTYPE
  5
72
330
5
100
AcDbSymbolTableRecord
100
AcDbLinetypeTableRecord
  2
DOT2
 70
     0
  3
Dot (.5x) ........................................
 72
    65
 73
     2
 40
0.635
 49
0.0
 74
     0
 49
-0.635
 74
     0
  0
ENDTAB
  0
TABLE
  2
LAYER
  5
2
330
0
100
AcDbSymbolTable
 70
    13
  0
LAYER
  5
10
330
2
100
AcDbSymbolTableRecord
100
AcDbLayerTableRecord
  2
0
 70
     0
 62
     7
  6
Continuous
370
    -3
390
F
  0
LAYER
  5
73
330
2
100
AcDbSymbolTableRecord
100
AcDbLayerTableRecord
  2
FORMAT
 70
     0
 62
     7
  6
Continuous
370
    -3
390
F
  0
LAYER
  5
74
330
2
100
AcDbSymbolTableRecord
100
AcDbLayerTableRecord
  2
OSA
 70
     0
 62
     7
  6
CENTER
370
    -3
390
F
  0
LAYER
  5
75
330
2
100
AcDbSymbolTableRecord
100
AcDbLayerTableRecord
  2
0_35
 70
     0
 62
     7
  6
Continuous
370
    35
390
F
  0
LAYER
  5
76
330
2
100
AcDbSymbolTableRecord
100
AcDbLayerTableRecord
  2
0_5
 70
     0
 62
     7
  6
Continuous
370
    50
390
F
  0
LAYER
  5
77
330
2
100
AcDbSymbolTableRecord
100
AcDbLayerTableRecord
  2
0_25
 70
     0
 62
     7
  6
Continuous
370
    25
390
F
  0
LAYER
  5
78
330
2
100
AcDbSymbolTableRecord
100
AcDbLayerTableRecord
  2
0_18
 70
     0
 62
     7
  6
Continuous
370
    -3
390
F
  0
LAYER
  5
79
330
2
100
AcDbSymbolTableRecord
100
AcDbLayerTableRecord
  2
SLD-0
 70
     0
 62
   179
  6
Continuous
370
    -3
390
F
  0
LAYER
  5
7A
330
2
100
AcDbSymbolTableRecord
100
AcDbLayerTableRecord
  2
KOTY
 70
     0
 62
     7
  6
Continuous
370
    -3
390
F
  0
LAYER
  5
7B
330
2
100
AcDbSymbolTableRecord
100
AcDbLayerTableRecord
  2
SILNA
 70
     0
 62
   179
  6
Continuous
370
    -3
390
F
  0
LAYER
  5
7C
330
2
100
AcDbSymbolTableRecord
100
AcDbLayerTableRecord
  2
0_18_1
 70
     0
 62
   179
  6
Continuous
370
    -3
390
F
  0
LAYER
  5
7D
330
2
100
AcDbSymbolTableRecord
100
AcDbLayerTableRecord
  2
0_35_1
 70
     0
 62
   179
  6
Continuous
370
    35
390
F
  0
LAYER
  5
7E
330
2
100
AcDbSymbolTableRecord
100
AcDbLayerTableRecord
  2
0_5_1
 70
     0
 62
   179
  6
Continuous
370
    50
390
F
  0
ENDTAB
  0
TABLE
  2
STYLE
  5
3
330
0
100
AcDbSymbolTable
 70
     1
  0
STYLE
  5
11
330
3
100
AcDbSymbolTableRecord
100
AcDbTextStyleTableRecord
  2
Standard
 70
     0
 40
0.0
 41
1.0
 50
0.0
 71
     0
 42
2.0
  3
txt
  4

  0
ENDTAB
  0
TABLE
  2
VIEW
  5
6
330
0
100
AcDbSymbolTable
 70
     0
  0
ENDTAB
  0
TABLE
  2
UCS
  5
7
330
0
100
AcDbSymbolTable
 70
     0
  0
ENDTAB
  0
TABLE
  2
APPID
  5
9
330
0
100
AcDbSymbolTable
 70
     1
  0
APPID
  5
12
330
9
100
AcDbSymbolTableRecord
100
AcDbRegAppTableRecord
  2
ACAD
 70
     0
  0
ENDTAB
  0
TABLE
  2
DIMSTYLE
  5
A
330
0
100
AcDbSymbolTable
 70
     1
100
AcDbDimStyleTable
  0
DIMSTYLE
105
27
330
A
100
AcDbSymbolTableRecord
100
AcDbDimStyleTableRecord
  2
ISO-25
 70
     0
 41
2.5
 42
0.625
 43
3.75
 44
1.25
 73
     0
 74
     0
 77
     1
 78
     8
140
2.5
141
2.5
143
0.0393700787
147
0.625
171
     3
172
     1
178
     0
271
     2
272
     2
274
     3
278
    44
283
     0
284
     8
340
11
  0
ENDTAB
  0
TABLE
  2
BLOCK_RECORD
  5
1
330
0
100
AcDbSymbolTable
 70
     1
  0
BLOCK_RECORD
  5
1F
330
1
100
AcDbSymbolTableRecord
100
AcDbBlockTableRecord
  2
*Model_Space
340
22
  0
BLOCK_RECORD
  5
1B
330
1
100
AcDbSymbolTableRecord
100
AcDbBlockTableRecord
  2
*Paper_Space
340
1E
  0
BLOCK_RECORD
  5
23
330
1
100
AcDbSymbolTableRecord
100
AcDbBlockTableRecord
  2
*Paper_Space0
340
26
  0
ENDTAB
  0
ENDSEC
  0
SECTION
  2
BLOCKS
  0
BLOCK
  5
20
330
1F
100
AcDbEntity
  8
0
100
AcDbBlockBegin
  2
*Model_Space
 70
     0
 10
0.0
 20
0.0
 30
0.0
  3
*Model_Space
  1

  0
ENDBLK
  5
21
330
1F
100
AcDbEntity
  8
0
100
AcDbBlockEnd
  0
BLOCK
  5
1C
330
1B
100
AcDbEntity
 67
     1
  8
0
100
AcDbBlockBegin
  2
*Paper_Space
 70
     0
 10
0.0
 20
0.0
 30
0.0
  3
*Paper_Space
  1

  0
ENDBLK
  5
1D
330
1B
100
AcDbEntity
 67
     1
  8
0
100
AcDbBlockEnd
  0
BLOCK
  5
24
330
23
100
AcDbEntity
  8
0
100
AcDbBlockBegin
  2
*Paper_Space0
 70
     0
 10
0.0
 20
0.0
 30
0.0
  3
*Paper_Space0
  1

  0
ENDBLK
  5
25
330
23
100
AcDbEntity
  8
0
100
AcDbBlockEnd
  0
ENDSEC
  0
SECTION
  2
ENTITIES
  0
LINE
  5
7F
330
1F
100
AcDbEntity
  8
0
  6
Continuous
 62
     7
370
    25
100
AcDbLine
 10
3008.460540982
 20
6948.4912520583
 30
0.0
 11
3008.460540982
 21
6948.314475363
 31
0.0
  0
LINE
  5
80
330
1F
100
AcDbEntity
  8
0
  6
Continuous
 62
     7
370
    25
100
AcDbLine
 10
3017.710540982
 20
6948.314475363
 30
0.0
 11
3017.710540982
 21
6948.4912520583
 31
0.0
  0
LINE
  5
81
330
1F
100
AcDbEntity
  8
0
  6
Continuous
 62
     7
370
    25
100
AcDbLine
 10
3016.835540982
 20
6948.314475363
 30
0.0
 11
3016.835540982
 21
6948.6680287536
 31
0.0
  0
LINE
  5
82
330
1F
100
AcDbEntity
  8
0
  6
Continuous
 62
     7
370
    25
100
AcDbLine
 10
3009.335540982
 20
6948.6680287536
 30
0.0
 11
3009.335540982
 21
6948.314475363
 31
0.0
  0
LINE
  5
83
330
1F
100
AcDbEntity
  8
0
  6
Continuous
 62
     7
370
    25
100
AcDbLine
 10
3000.635540982
 20
6969.9356694407
 30
0.0
 11
3000.785540982
 21
6969.7856694407
 31
0.0
  0
LINE
  5
84
330
1F
100
AcDbEntity
  8
0
  6
Continuous
 62
     7
370
    25
100
AcDbLine
 10
3025.385540982
 20
6969.7856694407
 30
0.0
 11
3025.535540982
 21
6969.9356694407
 31
0.0
  0
LINE
  5
85
330
1F
100
AcDbEntity
  8
0
  6
Continuous
 62
     7
370
    25
100
AcDbLine
 10
3025.535540982
 20
6970.7856694407
 30
0.0
 11
3025.035540982
 21
6971.2856694407
 31
0.0
  0
LINE
  5
86
330
1F
100
AcDbEntity
  8
0
  6
Continuous
 62
     7
370
    25
100
AcDbLine
 10
3001.135540982
 20
6971.2856694407
 30
0.0
 11
3000.635540982
 21
6970.7856694407
 31
0.0
  0
LINE
  5
87
330
1F
100
AcDbEntity
  8
0
  6
Continuous
 62
     7
370
    25
100
AcDbLine
 10
3000.635540982
 20
6970.7856694407
 30
0.0
 11
3000.635540982
 21
6969.9356694407
 31
0.0
  0
LINE
  5
88
330
1F
100
AcDbEntity
  8
0
  6
Continuous
 62
     7
370
    25
100
AcDbLine
 10
3025.535540982
 20
6969.9356694407
 30
0.0
 11
3025.535540982
 21
6970.7856694407
 31
0.0
  0
LINE
  5
89
330
1F
100
AcDbEntity
  8
0
  6
Continuous
 62
     7
370
    25
100
AcDbLine
 10
3000.710540982
 20
6903.3856694407
 30
0.0
 11
3000.810540982
 21
6903.2856694407
 31
0.0
  0
LINE
  5
8A
330
1F
100
AcDbEntity
  8
0
  6
Continuous
 62
     7
370
    25
100
AcDbLine
 10
3025.360540982
 20
6903.2856694407
 30
0.0
 11
3025.460540982
 21
6903.3856694407
 31
0.0
  0
LINE
  5
8B
330
1F
100
AcDbEntity
  8
0
  6
Continuous
 62
     7
370
    25
100
AcDbLine
 10
3025.460540982
 20
6969.6856694407
 30
0.0
 11
3025.360540982
 21
6969.7856694407
 31
0.0
  0
LINE
  5
8C
330
1F
100
AcDbEntity
  8
0
  6
Continuous
 62
     7
370
    25
100
AcDbLine
 10
3000.810540982
 20
6969.7856694407
 30
0.0
 11
3000.710540982
 21
6969.6856694407
 31
0.0
  0
LINE
  5
8D
330
1F
100
AcDbEntity
  8
0
  6
Continuous
 62
     7
370
    25
100
AcDbLine
 10
3000.710540982
 20
6969.6856694407
 30
0.0
 11
3000.710540982
 21
6903.3856694407
 31
0.0
  0
LINE
  5
8E
330
1F
100
AcDbEntity
  8
0
  6
Continuous
 62
     7
370
    25
100
AcDbLine
 10
3025.460540982
 20
6903.3856694407
 30
0.0
 11
3025.460540982
 21
6969.6856694407
 31
0.0
  0
LINE
  5
8F
330
1F
100
AcDbEntity
  8
0
  6
Continuous
 62
     7
370
    25
100
AcDbLine
 10
3028.085540982
 20
6902.3158329076
 30
0.0
 11
3027.8440595254
 21
6902.7340910594
 31
0.0
  0
LINE
  5
90
330
1F
100
AcDbEntity
  8
0
  6
Continuous
 62
     7
370
    25
100
AcDbLine
 10
2998.3270224386
 20
6902.7340910594
 30
0.0
 11
2998.085540982
 21
6902.3158329076
 31
0.0
  0
LINE
  5
91
330
1F
100
AcDbEntity
  8
0
  6
Continuous
 62
     7
370
    25
100
AcDbLine
 10
3028.085540982
 20
6901.2856694407
 30
0.0
 11
3028.085540982
 21
6902.3158329076
 31
0.0
  0
LINE
  5
92
330
1F
100
AcDbEntity
  8
0
  6
Continuous
 62
     7
370
    25
100
AcDbLine
 10
2998.085540982
 20
6902.3158329076
 30
0.0
 11
2998.085540982
 21
6901.2856694407
 31
0.0
  0
LINE
  5
93
330
1F
100
AcDbEntity
  8
0
  6
Continuous
 62
     7
370
    25
100
AcDbLine
 10
3027.8440595254
 20
6902.7340910594
 30
0.0
 11
3025.785540982
 21
6903.2856694407
 31
0.0
  0
LINE
  5
94
330
1F
100
AcDbEntity
  8
0
  6
Continuous
 62
     7
370
    25
100
AcDbLine
 10
3000.385540982
 20
6903.2856694407
 30
0.0
 11
2998.3270224386
 21
6902.7340910594
 31
0.0
  0
ARC
  5
95
330
1F
100
AcDbEntity
  8
0
  6
Continuous
 62
     7
370
    25
100
AcDbCircle
 10
3013.085540982
 20
6950.0356694407
 30
0.0
 40
6.474999999999707
100
AcDbArc
 50
26.3603643512
 51
153.6396356488
  0
LINE
  5
96
330
1F
100
AcDbEntity
  8
0
  6
Continuous
 62
     7
370
    25
100
AcDbLine
 10
3007.2838171003
 20
6952.9106694407
 30
0.0
 11
3018.8872648637
 21
6952.9106694407
 31
0.0
  0
LINE
  5
97
330
1F
100
AcDbEntity
  8
0
  6
Continuous
 62
     7
370
    25
100
AcDbLine
 10
3007.2838171003
 20
6952.9106694407
 30
0.0
 11
3006.5273400092
 21
6952.4106694407
 31
0.0
  0
ARC
  5
98
330
1F
100
AcDbEntity
  8
0
  6
Continuous
 62
     7
370
    25
100
AcDbCircle
 10
3013.085540982
 20
6950.0356694407
 30
0.0
 40
6.97499999999962
100
AcDbArc
 50
19.9074488975
 51
160.0925511025
  0
LINE
  5
99
330
1F
100
AcDbEntity
  8
0
  6
Continuous
 62
     7
370
    25
100
AcDbLine
 10
3019.6437419548
 20
6952.4106694407
 30
0.0
 11
3018.8872648637
 21
6952.9106694407
 31
0.0
  0
ARC
  5
9A
330
1F
100
AcDbEntity
  8
0
  6
Continuous
 62
     7
370
    25
100
AcDbCircle
 10
3013.085540982
 20
6950.0356694407
 30
0.0
 40
6.97499999999962
100
AcDbArc
 50
160.0925511025
 51
19.9074488975
  0
LWPOLYLINE
  5
9B
330
1F
100
AcDbEntity
  8
0
  6
Continuous
 62
     7
370
    25
100
AcDbPolyline
 90
       34
 70
   128
 43
0.0
 10
3013.085540982
 20
6944.4422347904
 10
3014.0272883184
 20
6944.5058220517
 10
3014.9349984523
 20
6944.6942856263
 10
3015.7758643746
 20
6945.0008139496
 10
3016.5194949998
 20
6945.4143282894
 10
3017.1390135798
 20
6945.9198831599
 10
3017.6120290989
 20
6946.499206491
 10
3017.9214455438
 20
6947.131360028
 10
3018.056079798
 20
6947.7934960951
 10
3018.0110658288
 20
6948.4616833697
 10
3017.7880305583
 20
6949.1117718226
 10
3017.3950350622
 20
6949.7202655635
 10
3016.8462832219
 20
6950.265172043
 10
3016.1616083585
 20
6950.7267969213
 10
3015.3657564054
 20
6951.0884558726
 10
3014.487491526
 20
6951.3370776
 10
3013.5585565011
 20
6951.4636762665
 10
3012.6125254629
 20
6951.4636762665
 10
3011.683590438
 20
6951.3370776
 10
3010.8053255586
 20
6951.0884558726
 10
3010.0094736055
 20
6950.7267969213
 10
3009.3247987421
 20
6950.265172043
 10
3008.7760469018
 20
6949.7202655635
 10
3008.3830514057
 20
6949.1117718226
 10
3008.1600161352
 20
6948.4616833697
 10
3008.115002166
 20
6947.7934960951
 10
3008.2496364202
 20
6947.131360028
 10
3008.5590528651
 20
6946.499206491
 10
3009.0320683842
 20
6945.9198831599
 10
3009.6515869642
 20
6945.4143282894
 10
3010.3952175894
 20
6945.0008139496
 10
3011.2360835117
 20
6944.6942856263
 10
3012.1437936456
 20
6944.5058220517
 10
3013.085540982
 20
6944.4422347904
  0
LINE
  5
9C
330
1F
100
AcDbEntity
  8
0
  6
Continuous
 62
     7
370
    25
100
AcDbLine
 10
3013.085540982
 20
6944.9999123262
 30
0.0
 11
3013.4096294459
 21
6945.0078439262
 31
0.0
  0
LWPOLYLINE
  5
9D
330
1F
100
AcDbEntity
  8
0
  6
Continuous
 62
     7
370
    25
100
AcDbPolyline
 90
        3
 70
   128
 43
0.0
 10
3014.9261659216
 20
6945.2661351522
 10
3015.6897764493
 20
6945.5585169199
 10
3016.3997986488
 20
6945.9705094537
  0
ARC
  5
9E
330
1F
100
AcDbEntity
  8
0
  6
Continuous
 62
     7
370
    25
100
AcDbCircle
 10
3015.2206851111
 20
6948.3231635842
 30
0.0
 40
2.539869741544519
100
AcDbArc
 50
328.5434756361
 51
44.7188416961
  0
ARC
  5
9F
330
1F
100
AcDbEntity
  8
0
  6
Continuous
 62
     7
370
    25
100
AcDbCircle
 10
3010.9675421499
 20
6948.3091265806
 30
0.0
 40
2.561930329804673
100
AcDbArc
 50
135.3278923336
 51
193.5261788546
  0
ARC
  5
A0
330
1F
100
AcDbEntity
  8
0
  6
Continuous
 62
     7
370
    25
100
AcDbCircle
 10
3012.0354821061
 20
6949.1632131587
 30
0.0
 40
3.915809702680881
100
AcDbArc
 50
219.212124089
 51
240.3693422245
  0
LWPOLYLINE
  5
A1
330
1F
100
AcDbEntity
  8
0
  6
Continuous
 62
     7
370
    25
100
AcDbPolyline
 90
        3
 70
   128
 43
0.0
 10
3011.5169677096
 20
6945.1909970024
 10
3012.1710550975
 20
6945.0636007256
 10
3013.085540982
 20
6944.9999123262
  0
SPLINE
  5
A2
330
1F
100
AcDbEntity
  8
0
  6
Continuous
 62
     7
370
    25
100
AcDbSpline
210
0.0
220
0.0
230
1.0
 70
    11
 71
     3
 72
    32
 73
    28
 74
     0
 42
0.00000001
 43
0.00000001
 40
0.0
 40
0.0
 40
0.0
 40
0.0
 40
0.0496855407849575
 40
0.0992631569229186
 40
0.1516714646248196
 40
0.1797885347264822
 40
0.2078863496849142
 40
0.2343642092798271
 40
0.2608335409170216
 40
0.30794308863565
 40
0.3561912370491114
 40
0.4099717737730009
 40
0.4380083457949333
 40
0.4660284699181607
 40
0.5174790509796133
 40
0.5653832098477508
 40
0.6147615632046928
 40
0.668666167053108
 40
0.6967256476003976
 40
0.7247633019586117
 40
0.7754210372527016
 40
0.822066288875422
 40
0.8718637836234295
 40
0.9270007553400262
 40
0.9545971343909108
 40
0.9821792426662183
 40
1.0
 40
1.0
 40
1.0
 40
1.0
 10
3013.085540981995
 20
6912.389689223788
 30
0.0
 10
3013.667698247917
 20
6912.444035239949
 30
0.0
 10
3014.830748244519
 20
6912.552609224352
 30
0.0
 10
3016.396689752154
 20
6913.390259778471
 30
0.0
 10
3017.447964819484
 20
6914.442691581795
 30
0.0
 10
3018.075202012213
 20
6915.512530462986
 30
0.0
 10
3018.410830008555
 20
6916.406431646977
 30
0.0
 10
3018.582399447581
 20
6917.337045690843
 30
0.0
 10
3018.603697893671
 20
6918.510027600984
 30
0.0
 10
3018.288481315918
 20
6919.914200612327
 30
0.0
 10
3017.435319576462
 20
6921.403290037595
 30
0.0
 10
3016.32779503973
 20
6922.409232057345
 30
0.0
 10
3015.20936893619
 20
6922.992428931275
 30
0.0
 10
3014.020744551789
 20
6923.371509818174
 30
0.0
 10
3012.501521225218
 20
6923.452939751633
 30
0.0
 10
3010.811681950867
 20
6922.992084352883
 30
0.0
 10
3009.34515852253
 20
6922.049427617399
 30
0.0
 10
3008.393379705924
 20
6920.877031803937
 30
0.0
 10
3007.872365446689
 20
6919.725957623165
 30
0.0
 10
3007.561855677543
 20
6918.524714575275
 30
0.0
 10
3007.563139631681
 20
6917.026065908333
 30
0.0
 10
3008.093418047684
 20
6915.38923158006
 30
0.0
 10
3009.09271274026
 20
6913.967706789496
 30
0.0
 10
3010.325676068868
 20
6913.05668597759
 30
0.0
 10
3011.512454773002
 20
6912.593297821439
 30
0.0
 10
3012.347854125685
 20
6912.4144104482
 30
0.0
 10
3012.877610182671
 20
6912.396657361974
 30
0.0
 10
3013.085540981995
 20
6912.389689223788
 30
0.0
  0
ARC
  5
A3
330
1F
100
AcDbEntity
  8
0
  6
Continuous
 62
     7
370
    25
100
AcDbCircle
 10
3013.0825888256
 20
6951.4505969252
 30
0.0
 40
6.406897796095999
100
AcDbArc
 50
255.855693961
 51
273.4799239048
  0
ARC
  5
A4
330
1F
100
AcDbEntity
  8
0
  6
Continuous
 62
     7
370
    25
100
AcDbCircle
 10
3013.1159245431
 20
6950.9196917826
 30
0.0
 40
6.22789029731961
100
AcDbArc
 50
273.2728416264
 51
286.8978847609
  0
LINE
  5
A5
330
1F
100
AcDbEntity
  8
0
  6
Continuous
 62
     7
370
    25
100
AcDbLine
 10
3014.9261659216
 20
6945.3142483023
 30
0.0
 11
3014.9261659216
 21
6944.9606949117
 31
0.0
  0
ARC
  5
A6
330
1F
100
AcDbEntity
  8
0
  6
Continuous
 62
     7
370
    25
100
AcDbCircle
 10
3013.4843136551
 20
6950.1380110804
 30
0.0
 40
5.034642519361003
100
AcDbArc
 50
286.6417277583
 51
305.3861985819
  0
ARC
  5
A7
330
1F
100
AcDbEntity
  8
0
  6
Continuous
 62
     7
370
    25
100
AcDbCircle
 10
3014.533216429
 20
6948.392868543
 30
0.0
 40
3.288279202500692
100
AcDbArc
 50
309.332748952
 51
330.2215658006
  0
LINE
  5
A8
330
1F
100
AcDbEntity
  8
0
  6
Continuous
 62
     7
370
    25
100
AcDbLine
 10
3017.3872864191
 20
6947.1133069331
 30
0.0
 11
3017.3872864191
 21
6946.7597535425
 31
0.0
  0
ARC
  5
A9
330
1F
100
AcDbEntity
  8
0
  6
Continuous
 62
     7
370
    25
100
AcDbCircle
 10
3015.2898525875
 20
6948.3193387123
 30
0.0
 40
2.419450625782399
100
AcDbArc
 50
330.100947763
 51
6.3605162396
  0
LINE
  5
AA
330
1F
100
AcDbEntity
  8
0
  6
Continuous
 62
     7
370
    25
100
AcDbLine
 10
3017.6944102821
 20
6948.5873753212
 30
0.0
 11
3017.6944102821
 21
6948.2338219306
 31
0.0
  0
ARC
  5
AB
330
1F
100
AcDbEntity
  8
0
  6
Continuous
 62
     7
370
    25
100
AcDbCircle
 10
3015.1777071787
 20
6947.9179531283
 30
0.0
 40
2.536447833278772
100
AcDbArc
 50
7.1537274672
 51
32.0099799123
  0
LINE
  5
AC
330
1F
100
AcDbEntity
  8
0
  6
Continuous
 62
     7
370
    25
100
AcDbLine
 10
3017.3285027814
 20
6949.6159937395
 30
0.0
 11
3017.3285027814
 21
6949.2624403489
 31
0.0
  0
ARC
  5
AD
330
1F
100
AcDbEntity
  8
0
  6
Continuous
 62
     7
370
    25
100
AcDbCircle
 10
3014.4310886165
 20
6947.7934854717
 30
0.0
 40
3.422943941852281
100
AcDbArc
 50
32.1703853281
 51
52.8521803244
  0
LINE
  5
AE
330
1F
100
AcDbEntity
  8
0
  6
Continuous
 62
     7
370
    25
100
AcDbLine
 10
3016.0716037596
 20
6950.7756820029
 30
0.0
 11
3016.0716037596
 21
6950.4583260335
 31
0.0
  0
ARC
  5
AF
330
1F
100
AcDbEntity
  8
0
  6
Continuous
 62
     7
370
    25
100
AcDbCircle
 10
3013.3909733312
 20
6945.9135997214
 30
0.0
 40
5.276392398734844
100
AcDbArc
 50
59.4664851876
 51
74.6889829521
  0
LINE
  5
B0
330
1F
100
AcDbEntity
  8
0
  6
Continuous
 62
     7
370
    25
100
AcDbLine
 10
3014.7842496663
 20
6951.2682402045
 30
0.0
 11
3014.7842496663
 21
6951.002715342
 31
0.0
  0
LINE
  5
B1
330
1F
100
AcDbEntity
  8
0
  6
Continuous
 62
     7
370
    25
100
AcDbLine
 10
3012.69960216
 20
6951.4690104973
 30
0.0
 11
3012.69960216
 21
6951.2198847082
 31
0.0
  0
ARC
  5
B2
330
1F
100
AcDbEntity
  8
0
  6
Continuous
 62
     7
370
    25
100
AcDbCircle
 10
3013.055157421
 20
6945.0021521622
 30
0.0
 40
6.227890297388528
100
AcDbArc
 50
93.2728416265
 51
106.8978847608
  0
LINE
  5
B3
330
1F
100
AcDbEntity
  8
0
  6
Continuous
 62
     7
370
    25
100
AcDbLine
 10
3011.2449160424
 20
6951.2300517345
 30
0.0
 11
3011.2449160424
 21
6950.9611490331
 31
0.0
  0
LINE
  5
B4
330
1F
100
AcDbEntity
  8
0
  6
Continuous
 62
     7
370
    25
100
AcDbLine
 10
3009.5536782881
 20
6950.4259406021
 30
0.0
 11
3009.6729683811
 21
6950.5218463381
 31
0.0
  0
LINE
  5
B5
330
1F
100
AcDbEntity
  8
0
  6
Continuous
 62
     7
370
    25
100
AcDbLine
 10
3009.5536782881
 20
6950.4259406021
 30
0.0
 11
3009.5536782881
 21
6950.0723872115
 31
0.0
  0
ARC
  5
B6
330
1F
100
AcDbEntity
  8
0
  6
Continuous
 62
     7
370
    25
100
AcDbCircle
 10
3011.637865535
 20
6947.5289754019
 30
0.0
 40
3.288279202512868
100
AcDbArc
 50
129.332748952
 51
150.2215658006
  0
LINE
  5
B7
330
1F
100
AcDbEntity
  8
0
  6
Continuous
 62
     7
370
    25
100
AcDbLine
 10
3008.7837955448
 20
6949.5156437929
 30
0.0
 11
3008.7837955448
 21
6949.1620904023
 31
0.0
  0
ARC
  5
B8
330
1F
100
AcDbEntity
  8
0
  6
Continuous
 62
     7
370
    25
100
AcDbCircle
 10
3010.8812293765
 20
6948.3096120138
 30
0.0
 40
2.41945062577282
100
AcDbArc
 50
150.100947763
 51
186.3605162396
  0
LINE
  5
B9
330
1F
100
AcDbEntity
  8
0
  6
Continuous
 62
     7
370
    25
100
AcDbLine
 10
3008.4766716819
 20
6948.0415754049
 30
0.0
 11
3008.4766716819
 21
6947.6880220143
 31
0.0
  0
ARC
  5
BA
330
1F
100
AcDbEntity
  8
0
  6
Continuous
 62
     7
370
    25
100
AcDbCircle
 10
3010.9933747853
 20
6948.0038908166
 30
0.0
 40
2.536447833264012
100
AcDbArc
 50
187.153727467
 51
212.0099799123
  0
ARC
  5
BB
330
1F
100
AcDbEntity
  8
0
  6
Continuous
 62
     7
370
    25
100
AcDbCircle
 10
3012.0000765584
 20
6949.0967293945
 30
0.0
 40
3.790571369504374
100
AcDbArc
 50
219.2415880112
 51
239.907230903
  0
LINE
  5
BC
330
1F
100
AcDbEntity
  8
0
  6
Continuous
 62
     7
370
    25
100
AcDbLine
 10
3010.0994782044
 20
6945.817071302
 30
0.0
 11
3010.0994782044
 21
6945.4635179114
 31
0.0
  0
ARC
  5
BD
330
1F
100
AcDbEntity
  8
0
  6
Continuous
 62
     7
370
    25
100
AcDbCircle
 10
3012.7801086328
 20
6950.0082442234
 30
0.0
 40
5.276392398671256
100
AcDbArc
 50
239.4664851875
 51
254.6889829522
  0
ARC
  5
BE
330
1F
100
AcDbEntity
  8
0
  6
Continuous
 62
     7
370
    25
100
AcDbCircle
 10
3011.1572176185
 20
6948.3160230811
 30
0.0
 40
2.191327675911198
100
AcDbArc
 50
142.8196034425
 51
198.9901645252
  0
ARC
  5
BF
330
1F
100
AcDbEntity
  8
0
  6
Continuous
 62
     7
370
    25
100
AcDbCircle
 10
3012.5792478771
 20
6946.995580882
 30
0.0
 40
4.149759285142815
100
AcDbArc
 50
108.5888882255
 51
132.5829750806
  0
ARC
  5
C0
330
1F
100
AcDbEntity
  8
0
  6
Continuous
 62
     7
370
    25
100
AcDbCircle
 10
3013.0905331567
 20
6945.5566965543
 30
0.0
 40
5.675127095492549
100
AcDbArc
 50
74.0073090731
 51
93.3242452229
  0
LWPOLYLINE
  5
C1
330
1F
100
AcDbEntity
  8
0
  6
Continuous
 62
     7
370
    25
100
AcDbPolyline
 90
       19
 70
   128
 43
0.0
 10
3016.00263494
 20
6950.3767784252
 10
3016.3307992251
 20
6950.1150202716
 10
3016.7892995258
 20
6949.5985699174
 10
3017.0859278056
 20
6949.0259984693
 10
3017.2077199852
 20
6948.4223300473
 10
3017.1493531619
 20
6947.813947858
 10
3016.913378246
 20
6947.2274411225
 10
3016.5101084737
 20
6946.6884429995
 10
3015.9571686691
 20
6946.2205102933
 10
3015.278724955
 20
6945.8440939086
 10
3014.5044285772
 20
6945.5756450477
 10
3013.6681200029
 20
6945.426896214
 10
3012.8063499299
 20
6945.4043484451
 10
3011.9567818455
 20
6945.508987187
 10
3011.1565459518
 20
6945.7362392244
 10
3010.4406163973
 20
6946.0761725527
 10
3009.8402827389
 20
6946.5139304545
 10
3009.3817824381
 20
6947.0303808087
 10
3009.0851541584
 20
6947.6029522567
  0
LINE
  5
C2
330
1F
100
AcDbEntity
  8
0
  6
Continuous
 62
     7
370
    25
100
AcDbLine
 10
3017.1696813921
 20
6947.2053265654
 30
0.0
 11
3017.3872864191
 21
6947.1133069331
 31
0.0
  0
ARC
  5
C3
330
1F
100
AcDbEntity
  8
0
  6
Continuous
 62
     7
370
    25
100
AcDbCircle
 10
3014.4533757862
 20
6948.7219274563
 30
0.0
 40
3.111011797942961
100
AcDbArc
 50
308.7303444164
 51
330.8239703362
  0
LINE
  5
C4
330
1F
100
AcDbEntity
  8
0
  6
Continuous
 62
     7
370
    25
100
AcDbLine
 10
3014.9261659216
 20
6945.3142483023
 30
0.0
 11
3014.8643155636
 21
6945.4881185218
 31
0.0
  0
ARC
  5
C5
330
1F
100
AcDbEntity
  8
0
  6
Continuous
 62
     7
370
    25
100
AcDbCircle
 10
3013.1139255757
 20
6951.1106137209
 30
0.0
 40
5.888660065996755
100
AcDbArc
 50
272.8783648797
 51
287.2923615076
  0
ARC
  5
C6
330
1F
100
AcDbEntity
  8
0
  6
Continuous
 62
     7
370
    25
100
AcDbCircle
 10
3012.7974288438
 20
6950.2488858942
 30
0.0
 40
4.989437349046174
100
AcDbArc
 50
239.0259192752
 51
255.1295488645
  0
LINE
  5
C7
330
1F
100
AcDbEntity
  8
0
  6
Continuous
 62
     7
370
    25
100
AcDbLine
 10
3010.2296136163
 20
6945.9709412922
 30
0.0
 11
3010.0994782044
 21
6945.817071302
 31
0.0
  0
ARC
  5
C8
330
1F
100
AcDbEntity
  8
0
  6
Continuous
 62
     7
370
    25
100
AcDbCircle
 10
3011.108372588
 20
6948.3546172404
 30
0.0
 40
2.400962672891917
100
AcDbArc
 50
186.4402066724
 51
212.723500707
  0
LINE
  5
C9
330
1F
100
AcDbEntity
  8
0
  6
Continuous
 62
     7
370
    25
100
AcDbLine
 10
3008.4766716819
 20
6948.0415754049
 30
0.0
 11
3008.7225613043
 21
6948.0853102125
 31
0.0
  0
LINE
  5
CA
330
1F
100
AcDbEntity
  8
0
  6
Continuous
 62
     7
370
    25
100
AcDbLine
 10
3009.7712833152
 20
6950.3339209699
 30
0.0
 11
3009.5536782881
 21
6950.4259406021
 31
0.0
  0
LINE
  5
CB
330
1F
100
AcDbEntity
  8
0
  6
Continuous
 62
     7
370
    25
100
AcDbLine
 10
3012.7360702047
 20
6951.4709211994
 30
0.0
 11
3012.7614525181
 21
6951.3995678793
 31
0.0
  0
LINE
  5
CC
330
1F
100
AcDbEntity
  8
0
  6
Continuous
 62
     7
370
    25
100
AcDbLine
 10
3014.6541142544
 20
6951.2023987423
 30
0.0
 11
3014.7228615344
 21
6951.2836844059
 31
0.0
  0
LINE
  5
CD
330
1F
100
AcDbEntity
  8
0
  6
Continuous
 62
     7
370
    25
100
AcDbLine
 10
3017.3285027814
 20
6949.6159937395
 30
0.0
 11
3017.082613159
 21
6949.5722589319
 31
0.0
  0
LINE
  5
CE
330
1F
100
AcDbEntity
  8
0
  6
Continuous
 62
     7
370
    25
100
AcDbLine
 10
3012.69960216
 20
6951.2198847082
 30
0.0
 11
3012.7614525181
 21
6951.0460144887
 31
0.0
  0
ARC
  5
CF
330
1F
100
AcDbEntity
  8
0
  6
Continuous
 62
     7
370
    25
100
AcDbCircle
 10
3013.0571563883
 20
6945.1647836146
 30
0.0
 40
5.888660066019381
100
AcDbArc
 50
92.8783648797
 51
107.2923615075
  0
LINE
  5
D0
330
1F
100
AcDbEntity
  8
0
  6
Continuous
 62
     7
370
    25
100
AcDbLine
 10
3011.2449160424
 20
6950.9611490331
 30
0.0
 11
3011.3067664004
 21
6950.7872788137
 31
0.0
  0
LINE
  5
D1
330
1F
100
AcDbEntity
  8
0
  6
Continuous
 62
     7
370
    25
100
AcDbLine
 10
3012.7614525181
 20
6951.3995678793
 30
0.0
 11
3012.7614525181
 21
6951.0460144887
 31
0.0
  0
LINE
  5
D2
330
1F
100
AcDbEntity
  8
0
  6
Continuous
 62
     7
370
    25
100
AcDbLine
 10
3015.9414683477
 20
6950.3044560432
 30
0.0
 11
3016.0716037596
 21
6950.4583260335
 31
0.0
  0
ARC
  5
D3
330
1F
100
AcDbEntity
  8
0
  6
Continuous
 62
     7
370
    25
100
AcDbCircle
 10
3013.3736531201
 20
6946.0265114412
 30
0.0
 40
4.989437349147719
100
AcDbArc
 50
59.0259192754
 51
75.1295488644
  0
LINE
  5
D4
330
1F
100
AcDbEntity
  8
0
  6
Continuous
 62
     7
370
    25
100
AcDbLine
 10
3014.6541142544
 20
6950.8488453517
 30
0.0
 11
3014.7842496663
 21
6951.002715342
 31
0.0
  0
LINE
  5
D5
330
1F
100
AcDbEntity
  8
0
  6
Continuous
 62
     7
370
    25
100
AcDbLine
 10
3009.0851541584
 20
6947.9565056473
 30
0.0
 11
3008.968123709
 21
6948.4912520583
 31
0.0
  0
ARC
  5
D6
330
1F
100
AcDbEntity
  8
0
  6
Continuous
 62
     7
370
    25
100
AcDbCircle
 10
3014.4056985134
 20
6948.9290386334
 30
0.0
 40
2.831310499924542
100
AcDbArc
 50
296.8549876394
 51
351.1050504053
  0
ARC
  5
D7
330
1F
100
AcDbEntity
  8
0
  6
Continuous
 62
     7
370
    25
100
AcDbCircle
 10
3011.9767128706
 20
6949.1560760332
 30
0.0
 40
3.13050808928424
100
AcDbArc
 50
202.5312406152
 51
241.5712187784
  0
LINE
  5
D8
330
1F
100
AcDbEntity
  8
0
  6
Continuous
 62
     7
370
    25
100
AcDbLine
 10
3014.6541142544
 20
6951.2023987423
 30
0.0
 11
3014.6541142544
 21
6950.8488453517
 31
0.0
  0
LWPOLYLINE
  5
D9
330
1F
100
AcDbEntity
  8
0
  6
Continuous
 62
     7
370
    25
100
AcDbPolyline
 90
       30
 70
   128
 43
0.0
 10
3009.4488256878
 20
6947.6676361755
 10
3009.3372018292
 20
6948.2355653017
 10
3009.4008461434
 20
6948.8071841747
 10
3009.636782693
 20
6949.3557645313
 10
3010.0339793471
 20
6949.8556553636
 10
3010.5738636318
 20
6950.2834823321
 10
3011.2311911578
 20
6950.619240723
 10
3011.9752260206
 20
6950.8472308473
 10
3012.771177977
 20
6950.9567921401
 10
3013.5818291981
 20
6950.9428016372
 10
3014.3692745338
 20
6950.8059135188
 10
3015.0966939155
 20
6950.5525285213
 10
3015.7300740211
 20
6950.1944946455
 10
3016.2397987011
 20
6949.7485531576
 10
3016.6020337958
 20
6949.2355557858
 10
3016.7998415948
 20
6948.6794897173
 10
3016.8239728254
 20
6948.1063559831
 10
3016.6732991379
 20
6947.5429536799
 10
3016.3548658665
 20
6947.0156268731
 10
3015.8835625971
 20
6946.5490327781
 10
3015.2814269468
 20
6946.1649888163
 10
3014.5766141094
 20
6945.8814524564
 10
3013.8020803497
 20
6945.7116815434
 10
3012.9940420055
 20
6945.6636143767
 10
3012.1902820518
 20
6945.7394985235
 10
3011.4283834107
 20
6945.9357857255
 10
3010.7439716158
 20
6946.2432978111
 10
3010.1690490019
 20
6946.6476558572
 10
3009.7304983117
 20
6947.1299525308
 10
3009.4488256878
 20
6947.6676361755
  0
ARC
  5
DA
330
1F
100
AcDbEntity
  8
0
  6
Continuous
 62
     7
370
    25
100
AcDbCircle
 10
3011.7040022254
 20
6948.5441474462
 30
0.0
 40
2.37169880883279
100
AcDbArc
 50
120.8902227384
 51
177.0058982428
  0
ARC
  5
DB
330
1F
100
AcDbEntity
  8
0
  6
Continuous
 62
     7
370
    25
100
AcDbCircle
 10
3014.5814505929
 20
6948.5840557228
 30
0.0
 40
2.255653996547436
100
AcDbArc
 50
2.1334886891
 51
51.6201446939
  0
LINE
  5
DC
330
1F
100
AcDbEntity
  8
0
  6
Continuous
 62
     7
370
    25
100
AcDbLine
 10
3009.7712833152
 20
6950.3339209699
 30
0.0
 11
3009.7712833152
 21
6949.9803675793
 31
0.0
  0
LINE
  5
DD
330
1F
100
AcDbEntity
  8
0
  6
Continuous
 62
     7
370
    25
100
AcDbLine
 10
3009.7712833152
 20
6949.9803675793
 30
0.0
 11
3009.5536782881
 21
6950.0723872115
 31
0.0
  0
ARC
  5
DE
330
1F
100
AcDbEntity
  8
0
  6
Continuous
 62
     7
370
    25
100
AcDbCircle
 10
3011.7177061778
 20
6947.5534698792
 30
0.0
 40
3.111011797919727
100
AcDbArc
 50
128.7303444162
 51
150.8239703362
  0
LINE
  5
DF
330
1F
100
AcDbEntity
  8
0
  6
Continuous
 62
     7
370
    25
100
AcDbLine
 10
3009.0014005719
 20
6949.0700707701
 30
0.0
 11
3008.7837955448
 21
6949.1620904023
 31
0.0
  0
LINE
  5
E0
330
1F
100
AcDbEntity
  8
0
  6
Continuous
 62
     7
370
    25
100
AcDbLine
 10
3017.3285027814
 20
6949.2624403489
 30
0.0
 11
3017.082613159
 21
6949.2187055413
 31
0.0
  0
LINE
  5
E1
330
1F
100
AcDbEntity
  8
0
  6
Continuous
 62
     7
370
    25
100
AcDbLine
 10
3017.6944102821
 20
6948.2338219306
 30
0.0
 11
3017.4485206596
 21
6948.190087123
 31
0.0
  0
ARC
  5
E2
330
1F
100
AcDbEntity
  8
0
  6
Continuous
 62
     7
370
    25
100
AcDbCircle
 10
3015.062709376
 20
6947.920780095
 30
0.0
 40
2.400962672879932
100
AcDbArc
 50
6.4402066723
 51
32.7235007071
  0
LINE
  5
E3
330
1F
100
AcDbEntity
  8
0
  6
Continuous
 62
     7
370
    25
100
AcDbLine
 10
3017.082613159
 20
6949.5722589319
 30
0.0
 11
3017.082613159
 21
6949.2187055413
 31
0.0
  0
LINE
  5
E4
330
1F
100
AcDbEntity
  8
0
  6
Continuous
 62
     7
370
    25
100
AcDbLine
 10
3008.4766716819
 20
6947.6880220143
 30
0.0
 11
3008.7225613043
 21
6947.7317568219
 31
0.0
  0
ARC
  5
E5
330
1F
100
AcDbEntity
  8
0
  6
Continuous
 62
     7
370
    25
100
AcDbCircle
 10
3011.108372588
 20
6948.0010638499
 30
0.0
 40
2.400962672882243
100
AcDbArc
 50
186.4402066724
 51
212.7235007071
  0
LINE
  5
E6
330
1F
100
AcDbEntity
  8
0
  6
Continuous
 62
     7
370
    25
100
AcDbLine
 10
3008.8425791825
 20
6946.659403596
 30
0.0
 11
3009.088468805
 21
6946.7031384036
 31
0.0
  0
LINE
  5
E7
330
1F
100
AcDbEntity
  8
0
  6
Continuous
 62
     7
370
    25
100
AcDbLine
 10
3008.7225613043
 20
6948.0853102125
 30
0.0
 11
3008.7225613043
 21
6947.7317568219
 31
0.0
  0
LINE
  5
E8
330
1F
100
AcDbEntity
  8
0
  6
Continuous
 62
     7
370
    25
100
AcDbLine
 10
3009.088468805
 20
6947.0566917942
 30
0.0
 11
3009.088468805
 21
6946.7031384036
 31
0.0
  0
LINE
  5
E9
330
1F
100
AcDbEntity
  8
0
  6
Continuous
 62
     7
370
    25
100
AcDbLine
 10
3017.1696813921
 20
6947.2053265654
 30
0.0
 11
3017.1696813921
 21
6946.8517731748
 31
0.0
  0
LINE
  5
EA
330
1F
100
AcDbEntity
  8
0
  6
Continuous
 62
     7
370
    25
100
AcDbLine
 10
3017.1696813921
 20
6946.8517731748
 30
0.0
 11
3017.3872864191
 21
6946.7597535425
 31
0.0
  0
ARC
  5
EB
330
1F
100
AcDbEntity
  8
0
  6
Continuous
 62
     7
370
    25
100
AcDbCircle
 10
3014.4533757862
 20
6948.3683740657
 30
0.0
 40
3.111011797939548
100
AcDbArc
 50
308.7303444163
 51
330.8239703362
  0
LINE
  5
EC
330
1F
100
AcDbEntity
  8
0
  6
Continuous
 62
     7
370
    25
100
AcDbLine
 10
3016.3997986488
 20
6945.9414763656
 30
0.0
 11
3016.6174036759
 21
6945.8494567334
 31
0.0
  0
LINE
  5
ED
330
1F
100
AcDbEntity
  8
0
  6
Continuous
 62
     7
370
    25
100
AcDbLine
 10
3016.3997986488
 20
6946.2950297562
 30
0.0
 11
3016.3997986488
 21
6945.9414763656
 31
0.0
  0
LINE
  5
EE
330
1F
100
AcDbEntity
  8
0
  6
Continuous
 62
     7
370
    25
100
AcDbLine
 10
3010.2296136163
 20
6945.9709412922
 30
0.0
 11
3010.2296136163
 21
6945.6173879017
 31
0.0
  0
LINE
  5
EF
330
1F
100
AcDbEntity
  8
0
  6
Continuous
 62
     7
370
    25
100
AcDbLine
 10
3011.5169677096
 20
6945.4265519837
 30
0.0
 11
3011.5169677096
 21
6945.0729985932
 31
0.0
  0
ARC
  5
F0
330
1F
100
AcDbEntity
  8
0
  6
Continuous
 62
     7
370
    25
100
AcDbCircle
 10
3012.7974288438
 20
6949.8953325036
 30
0.0
 40
4.989437349082984
100
AcDbArc
 50
239.0259192753
 51
255.1295488644
  0
LINE
  5
F1
330
1F
100
AcDbEntity
  8
0
  6
Continuous
 62
     7
370
    25
100
AcDbLine
 10
3010.2296136163
 20
6945.6173879017
 30
0.0
 11
3010.0994782044
 21
6945.4635179114
 31
0.0
  0
LINE
  5
F2
330
1F
100
AcDbEntity
  8
0
  6
Continuous
 62
     7
370
    25
100
AcDbLine
 10
3011.5169677096
 20
6945.0729985932
 30
0.0
 11
3011.3868322977
 21
6944.9191286029
 31
0.0
  0
LINE
  5
F3
330
1F
100
AcDbEntity
  8
0
  6
Continuous
 62
     7
370
    25
100
AcDbLine
 10
3014.8643155636
 20
6945.4881185218
 30
0.0
 11
3014.8643155636
 21
6945.1345651312
 31
0.0
  0
ARC
  5
F4
330
1F
100
AcDbEntity
  8
0
  6
Continuous
 62
     7
370
    25
100
AcDbCircle
 10
3013.1139255757
 20
6950.7570603303
 30
0.0
 40
5.888660065993146
100
AcDbArc
 50
272.8783648797
 51
287.2923615076
  0
LINE
  5
F5
330
1F
100
AcDbEntity
  8
0
  6
Continuous
 62
     7
370
    25
100
AcDbLine
 10
3013.4096294459
 20
6945.2293828468
 30
0.0
 11
3013.4096294459
 21
6944.8758294562
 31
0.0
  0
LINE
  5
F6
330
1F
100
AcDbEntity
  8
0
  6
Continuous
 62
     7
370
    25
100
AcDbLine
 10
3014.9261659216
 20
6944.9606949117
 30
0.0
 11
3014.8643155636
 21
6945.1345651312
 31
0.0
  0
LINE
  5
F7
330
1F
100
AcDbEntity
  8
0
  6
Continuous
 62
     7
370
    25
100
AcDbLine
 10
3013.471479804
 20
6944.7019592367
 30
0.0
 11
3013.4096294459
 21
6944.8758294562
 31
0.0
  0
LINE
  5
F8
330
1F
100
AcDbEntity
  8
0
  6
Continuous
 62
     7
370
    25
100
AcDbLine
 10
3009.7946444476
 20
6956.197853359
 30
0.0
 11
3009.7946444476
 21
6956.1855169998
 31
0.0
  0
LINE
  5
F9
330
1F
100
AcDbEntity
  8
0
  6
Continuous
 62
     7
370
    25
100
AcDbLine
 10
3009.4326903807
 20
6955.9856694407
 30
0.0
 11
3009.4457435975
 21
6955.9856694407
 31
0.0
  0
LINE
  5
FA
330
1F
100
AcDbEntity
  8
0
  6
Continuous
 62
     7
370
    25
100
AcDbLine
 10
3000.635540982
 20
6969.9356694407
 30
0.0
 11
3025.535540982
 21
6969.9356694407
 31
0.0
  0
LINE
  5
FB
330
1F
100
AcDbEntity
  8
0
  6
Continuous
 62
     7
370
    25
100
AcDbLine
 10
3000.785540982
 20
6969.7856694407
 30
0.0
 11
3025.385540982
 21
6969.7856694407
 31
0.0
  0
LINE
  5
FC
330
1F
100
AcDbEntity
  8
0
  6
Continuous
 62
     7
370
    25
100
AcDbLine
 10
3001.135540982
 20
6971.2856694407
 30
0.0
 11
3025.035540982
 21
6971.2856694407
 31
0.0
  0
LINE
  5
FD
330
1F
100
AcDbEntity
  8
0
  6
Continuous
 62
     7
370
    25
100
AcDbLine
 10
3000.635540982
 20
6970.7856694407
 30
0.0
 11
3025.535540982
 21
6970.7856694407
 31
0.0
  0
LINE
  5
FE
330
1F
100
AcDbEntity
  8
0
  6
Continuous
 62
     7
370
    25
100
AcDbLine
 10
3000.710540982
 20
6903.3856694407
 30
0.0
 11
3025.460540982
 21
6903.3856694407
 31
0.0
  0
LINE
  5
FF
330
1F
100
AcDbEntity
  8
0
  6
Continuous
 62
     7
370
    25
100
AcDbLine
 10
3013.085540982
 20
6969.6856694407
 30
0.0
 11
3000.710540982
 21
6969.6856694407
 31
0.0
  0
LINE
  5
100
330
1F
100
AcDbEntity
  8
0
  6
Continuous
 62
     7
370
    25
100
AcDbLine
 10
3025.460540982
 20
6969.6856694407
 30
0.0
 11
3013.085540982
 21
6969.6856694407
 31
0.0
  0
SPLINE
  5
101
330
1F
100
AcDbEntity
  8
0
  6
Continuous
 62
     7
370
    25
100
AcDbSpline
210
0.0
220
0.0
230
1.0
 70
     8
 71
     3
 72
    20
 73
    16
 74
     0
 42
0.00000001
 43
0.00000001
 40
0.0
 40
0.0
 40
0.0
 40
0.0
 40
0.077633432019098
 40
0.1552920815712927
 40
0.2326476015989262
 40
0.3100426434788054
 40
0.3929703812748485
 40
0.4759103198400751
 40
0.5676591513837161
 40
0.6593166600598421
 40
0.7310264934276616
 40
0.8027017951592251
 40
0.8744546835901431
 40
0.9462412684454722
 40
1.0
 40
1.0
 40
1.0
 40
1.0
 10
3013.085540981995
 20
6943.035669440745
 30
0.0
 10
3012.723377279156
 20
6943.052393314879
 30
0.0
 10
3011.99893223247
 20
6943.085846495534
 30
0.0
 10
3010.946943763474
 20
6943.343109491537
 30
0.0
 10
3009.960017216267
 20
6943.743010900063
 30
0.0
 10
3009.034705574502
 20
6944.292482998811
 30
0.0
 10
3008.195124793762
 20
6944.987305785466
 30
0.0
 10
3007.43400685287
 20
6945.849579828954
 30
0.0
 10
3006.803949402248
 20
6946.867330653283
 30
0.0
 10
3006.371033538746
 20
6947.94937618695
 30
0.0
 10
3006.13829481681
 20
6949.012603874228
 30
0.0
 10
3006.058863337978
 20
6950.017168981995
 30
0.0
 10
3006.139692710805
 20
6951.016502064377
 30
0.0
 10
3006.298464890481
 20
6951.927592727558
 30
0.0
 10
3006.55303143906
 20
6952.436031141922
 30
0.0
 10
3006.662037295585
 20
6952.653745390542
 30
0.0
  0
SPLINE
  5
102
330
1F
100
AcDbEntity
  8
0
  6
Continuous
 62
     7
370
    25
100
AcDbSpline
210
0.0
220
0.0
230
1.0
 70
     8
 71
     3
 72
    20
 73
    16
 74
     0
 42
0.00000001
 43
0.00000001
 40
0.0
 40
0.0
 40
0.0
 40
0.0
 40
0.0422668825278772
 40
0.1258176188480519
 40
0.191640647041899
 40
0.2574290731498219
 40
0.3233179666531511
 40
0.3892356639749875
 40
0.5192101313791987
 40
0.5943832258364593
 40
0.6695630544317637
 40
0.7535671444572918
 40
0.8375074161536238
 40
0.9187755438901317
 40
0.9999999999999999
 40
0.9999999999999999
 40
0.9999999999999999
 40
0.9999999999999999
 10
3018.950947621774
 20
6953.805985945448
 30
0.0
 10
3019.067031564878
 20
6953.634666691325
 30
0.0
 10
3019.41258355344
 20
6953.124693413729
 30
0.0
 10
3019.76082599107
 20
6952.227025698322
 30
0.0
 10
3020.017221797023
 20
6951.170749798074
 30
0.0
 10
3020.109033409378
 20
6950.163641735148
 30
0.0
 10
3020.052910342993
 20
6949.152985460666
 30
0.0
 10
3019.793176613037
 20
6947.849310277367
 30
0.0
 10
3019.248035986681
 20
6946.599374534981
 30
0.0
 10
3018.444289581334
 20
6945.488209263923
 30
0.0
 10
3017.637632388472
 20
6944.674763841361
 30
0.0
 10
3016.662885804908
 20
6943.976757784341
 30
0.0
 10
3015.538828586101
 20
6943.441973960294
 30
0.0
 10
3014.330390542666
 20
6943.102080444194
 30
0.0
 10
3013.500416480738
 20
6943.057802475169
 30
0.0
 10
3013.085540981995
 20
6943.035669440745
 30
0.0
  0
SPLINE
  5
103
330
1F
100
AcDbEntity
  8
0
  6
Continuous
 62
     7
370
    25
100
AcDbSpline
210
0.0
220
0.0
230
1.0
 70
    11
 71
     3
 72
    33
 73
    29
 74
     0
 42
0.00000001
 43
0.00000001
 40
0.0
 40
0.0
 40
0.0
 40
0.0
 40
0.050161615899915
 40
0.1002253630972409
 40
0.1528614241522966
 40
0.1808113947895595
 40
0.2087450695627835
 40
0.2351936303785786
 40
0.261635665739982
 40
0.3095711005377223
 40
0.3586243910702139
 40
0.4125009800285029
 40
0.4403426825870668
 40
0.468170444621085
 40
0.5196893334393237
 40
0.568210008191403
 40
0.6182725677582228
 40
0.6724045100301597
 40
0.7002188584766388
 40
0.7280155868228709
 40
0.7786515246278687
 40
0.8262319690602865
 40
0.8768975617618516
 40
0.9045732049168881
 40
0.9322391810697122
 40
0.9595791007515614
 40
0.9869077712557034
 40
1.0
 40
1.0
 40
1.0
 40
1.0
 10
3013.085540981995
 20
6912.260669440743
 30
0.0
 10
3012.49635906199
 20
6912.31603523998
 30
0.0
 10
3011.319144755724
 20
6912.426658816038
 30
0.0
 10
3009.735792189828
 20
6913.281182782834
 30
0.0
 10
3008.679223053983
 20
6914.352920468842
 30
0.0
 10
3008.056523918779
 20
6915.433636254626
 30
0.0
 10
3007.726713762209
 20
6916.330489940871
 30
0.0
 10
3007.560639286903
 20
6917.262637820495
 30
0.0
 10
3007.545826499181
 20
6918.447342687382
 30
0.0
 10
3007.876721004081
 20
6919.872194332273
 30
0.0
 10
3008.764037645435
 20
6921.377247582602
 30
0.0
 10
3009.90245839886
 20
6922.3780592579
 30
0.0
 10
3011.033995878106
 20
6922.944587091823
 30
0.0
 10
3012.230029499459
 20
6923.305790861834
 30
0.0
 10
3013.759291478923
 20
6923.365156661522
 30
0.0
 10
3015.461539080646
 20
6922.871719903948
 30
0.0
 10
3016.931833480054
 20
6921.88553524183
 30
0.0
 10
3017.868474214506
 20
6920.675470224514
 30
0.0
 10
3018.363810316433
 20
6919.506955311709
 30
0.0
 10
3018.646800381937
 20
6918.298812586932
 30
0.0
 10
3018.612548174975
 20
6916.790336283992
 30
0.0
 10
3018.036136420265
 20
6915.142362053253
 30
0.0
 10
3017.163792756795
 20
6913.97538579966
 30
0.0
 10
3016.225510779766
 20
6913.207861847192
 30
0.0
 10
3015.397003528074
 20
6912.73627916265
 30
0.0
 10
3014.494380404247
 20
6912.417521699933
 30
0.0
 10
3013.711263322117
 20
6912.276301995725
 30
0.0
 10
3013.238626781958
 20
6912.264494016008
 30
0.0
 10
3013.085540981995
 20
6912.260669440743
 30
0.0
  0
LINE
  5
104
330
1F
100
AcDbEntity
  8
0
  6
Continuous
 62
     7
370
    25
100
AcDbLine
 10
3009.0933611263
 20
6955.7856694407
 30
0.0
 11
3009.1373610216
 21
6955.7856694407
 31
0.0
  0
LINE
  5
105
330
1F
100
AcDbEntity
  8
0
  6
Continuous
 62
     7
370
    25
100
AcDbLine
 10
3017.0337209424
 20
6955.7856694407
 30
0.0
 11
3017.0777208377
 21
6955.7856694407
 31
0.0
  0
LINE
  5
106
330
1F
100
AcDbEntity
  8
0
  6
Continuous
 62
     7
370
    25
100
AcDbLine
 10
3028.085540982
 20
6902.3158329076
 30
0.0
 11
2998.085540982
 21
6902.3158329076
 31
0.0
  0
LINE
  5
107
330
1F
100
AcDbEntity
  8
0
  6
Continuous
 62
     7
370
    25
100
AcDbLine
 10
3027.8333462457
 20
6902.7340910594
 30
0.0
 11
3027.8440595254
 21
6902.7340910594
 31
0.0
  0
LINE
  5
108
330
1F
100
AcDbEntity
  8
0
  6
Continuous
 62
     7
370
    25
100
AcDbLine
 10
2998.3270224386
 20
6902.7340910594
 30
0.0
 11
3027.8333462457
 21
6902.7340910594
 31
0.0
  0
LINE
  5
109
330
1F
100
AcDbEntity
  8
0
  6
Continuous
 62
     7
370
    25
100
AcDbLine
 10
3028.085540982
 20
6901.2856694407
 30
0.0
 11
2998.085540982
 21
6901.2856694407
 31
0.0
  0
LINE
  5
10A
330
1F
100
AcDbEntity
  8
0
  6
Continuous
 62
     7
370
    25
100
AcDbLine
 10
3025.785540982
 20
6903.2856694407
 30
0.0
 11
3000.385540982
 21
6903.2856694407
 31
0.0
  0
LINE
  5
10B
330
1F
100
AcDbEntity
  8
0
  6
Continuous
 62
     7
370
    25
100
AcDbLine
 10
3190.4372046084
 20
6943.0606694407
 30
0.0
 11
3225.7262898773
 21
6943.0606694407
 31
0.0
  0
LINE
  5
10C
330
1F
100
AcDbEntity
  8
0
  6
Continuous
 62
     7
370
    25
100
AcDbLine
 10
3235.0762898773
 20
6957.0106694407
 30
0.0
 11
3190.4372047619
 21
6957.0106694407
 31
0.0
  0
LINE
  5
10D
330
1F
100
AcDbEntity
  8
0
  6
Continuous
 62
     7
370
    25
100
AcDbLine
 10
3235.5762898773
 20
6956.5106694407
 30
0.0
 11
3235.0762898773
 21
6957.0106694407
 31
0.0
  0
LINE
  5
10E
330
1F
100
AcDbEntity
  8
0
  6
Continuous
 62
     7
370
    25
100
AcDbLine
 10
3165.4512898773
 20
6906.7459434133
 30
0.0
 11
3165.4512898773
 21
6905.7856694407
 31
0.0
  0
LINE
  5
10F
330
1F
100
AcDbEntity
  8
0
  6
Continuous
 62
     7
370
    25
100
AcDbLine
 10
3165.4512898773
 20
6908.2856694407
 30
0.0
 11
3165.4512898773
 21
6906.8595378676
 31
0.0
  0
LINE
  5
110
330
1F
100
AcDbEntity
  8
0
  6
Continuous
 62
     7
370
    25
100
AcDbLine
 10
3190.457885602
 20
6923.3896892238
 30
0.0
 11
3190.4512898773
 21
6923.3896892238
 31
0.0
  0
LINE
  5
111
330
1F
100
AcDbEntity
  8
0
  6
Continuous
 62
     7
370
    25
100
AcDbLine
 10
3190.457885602
 20
6912.3896892238
 30
0.0
 11
3190.457885602
 21
6923.3896892238
 31
0.0
  0
LINE
  5
112
330
1F
100
AcDbEntity
  8
0
  6
Continuous
 62
     7
370
    25
100
AcDbLine
 10
3165.6262898773
 20
6969.9356694407
 30
0.0
 11
3165.7762898773
 21
6969.7856694407
 31
0.0
  0
LINE
  5
113
330
1F
100
AcDbEntity
  8
0
  6
Continuous
 62
     7
370
    25
100
AcDbLine
 10
3190.3762898773
 20
6969.7856694407
 30
0.0
 11
3190.5262898773
 21
6969.9356694407
 31
0.0
  0
LINE
  5
114
330
1F
100
AcDbEntity
  8
0
  6
Continuous
 62
     7
370
    25
100
AcDbLine
 10
3190.5262898773
 20
6970.7856694407
 30
0.0
 11
3190.0262898773
 21
6971.2856694407
 31
0.0
  0
LINE
  5
115
330
1F
100
AcDbEntity
  8
0
  6
Continuous
 62
     7
370
    25
100
AcDbLine
 10
3166.1262898773
 20
6971.2856694407
 30
0.0
 11
3165.6262898773
 21
6970.7856694407
 31
0.0
  0
LINE
  5
116
330
1F
100
AcDbEntity
  8
0
  6
Continuous
 62
     7
370
    25
100
AcDbLine
 10
3165.6262898773
 20
6970.7856694407
 30
0.0
 11
3165.6262898773
 21
6969.9356694407
 31
0.0
  0
LINE
  5
117
330
1F
100
AcDbEntity
  8
0
  6
Continuous
 62
     7
370
    25
100
AcDbLine
 10
3190.5262898773
 20
6969.9356694407
 30
0.0
 11
3190.5262898773
 21
6970.7856694407
 31
0.0
  0
LINE
  5
118
330
1F
100
AcDbEntity
  8
0
  6
Continuous
 62
     7
370
    25
100
AcDbLine
 10
3165.7012898773
 20
6967.5683397815
 30
0.0
 11
3165.7012898773
 21
6908.2856694407
 31
0.0
  0
LINE
  5
119
330
1F
100
AcDbEntity
  8
0
  6
Continuous
 62
     7
370
    25
100
AcDbLine
 10
3165.7012898773
 20
6905.7856694407
 30
0.0
 11
3165.7012898773
 21
6903.3856694407
 31
0.0
  0
LINE
  5
11A
330
1F
100
AcDbEntity
  8
0
  6
Continuous
 62
     7
370
    25
100
AcDbLine
 10
3165.7012898773
 20
6969.6856694407
 30
0.0
 11
3165.7012898773
 21
6968.8106694407
 31
0.0
  0
LINE
  5
11B
330
1F
100
AcDbEntity
  8
0
  6
Continuous
 62
     7
370
    25
100
AcDbLine
 10
3190.4512898773
 20
6957.0328642791
 30
0.0
 11
3190.4512898773
 21
6969.6856694407
 31
0.0
  0
LINE
  5
11C
330
1F
100
AcDbEntity
  8
0
  6
Continuous
 62
     7
370
    25
100
AcDbLine
 10
3190.4512898773
 20
6923.3896892238
 30
0.0
 11
3190.4512898773
 21
6943.0356694407
 31
0.0
  0
LINE
  5
11D
330
1F
100
AcDbEntity
  8
0
  6
Continuous
 62
     7
370
    25
100
AcDbLine
 10
3190.4512898773
 20
6903.3856694407
 30
0.0
 11
3190.4512898773
 21
6912.2606694407
 31
0.0
  0
LINE
  5
11E
330
1F
100
AcDbEntity
  8
0
  6
Continuous
 62
     7
370
    25
100
AcDbLine
 10
3190.4512898773
 20
6969.6856694407
 30
0.0
 11
3190.3512898773
 21
6969.7856694407
 31
0.0
  0
LINE
  5
11F
330
1F
100
AcDbEntity
  8
0
  6
Continuous
 62
     7
370
    25
100
AcDbLine
 10
3165.8012898773
 20
6969.7856694407
 30
0.0
 11
3165.7012898773
 21
6969.6856694407
 31
0.0
  0
LINE
  5
120
330
1F
100
AcDbEntity
  8
0
  6
Continuous
 62
     7
370
    25
100
AcDbLine
 10
3165.7012898773
 20
6903.3856694407
 30
0.0
 11
3165.8012898773
 21
6903.2856694407
 31
0.0
  0
LINE
  5
121
330
1F
100
AcDbEntity
  8
0
  6
Continuous
 62
     7
370
    25
100
AcDbLine
 10
3190.3512898773
 20
6903.2856694407
 30
0.0
 11
3190.4512898773
 21
6903.3856694407
 31
0.0
  0
LINE
  5
122
330
1F
100
AcDbEntity
  8
0
  6
Continuous
 62
     7
370
    25
100
AcDbLine
 10
3193.0762898773
 20
6902.3158329076
 30
0.0
 11
3192.8348084207
 21
6902.7340910594
 31
0.0
  0
LINE
  5
123
330
1F
100
AcDbEntity
  8
0
  6
Continuous
 62
     7
370
    25
100
AcDbLine
 10
3163.3177713339
 20
6902.7340910594
 30
0.0
 11
3163.0762898773
 21
6902.3158329076
 31
0.0
  0
LINE
  5
124
330
1F
100
AcDbEntity
  8
0
  6
Continuous
 62
     7
370
    25
100
AcDbLine
 10
3193.0762898773
 20
6901.2856694407
 30
0.0
 11
3193.0762898773
 21
6902.3158329076
 31
0.0
  0
LINE
  5
125
330
1F
100
AcDbEntity
  8
0
  6
Continuous
 62
     7
370
    25
100
AcDbLine
 10
3163.0762898773
 20
6902.3158329076
 30
0.0
 11
3163.0762898773
 21
6901.2856694407
 31
0.0
  0
LINE
  5
126
330
1F
100
AcDbEntity
  8
0
  6
Continuous
 62
     7
370
    25
100
AcDbLine
 10
3192.8348084207
 20
6902.7340910594
 30
0.0
 11
3190.7762898773
 21
6903.2856694407
 31
0.0
  0
LINE
  5
127
330
1F
100
AcDbEntity
  8
0
  6
Continuous
 62
     7
370
    25
100
AcDbLine
 10
3165.3762898773
 20
6903.2856694407
 30
0.0
 11
3163.3177713339
 21
6902.7340910594
 31
0.0
  0
LINE
  5
128
330
1F
100
AcDbEntity
  8
0
  6
Continuous
 62
     7
370
    25
100
AcDbLine
 10
3235.0762898773
 20
6952.4106694407
 30
0.0
 11
3235.0762898773
 21
6957.0106694407
 31
0.0
  0
LINE
  5
129
330
1F
100
AcDbEntity
  8
0
  6
Continuous
 62
     7
370
    25
100
AcDbLine
 10
3235.0762898773
 20
6952.4106694407
 30
0.0
 11
3225.7262898773
 21
6943.0606694407
 31
0.0
  0
LINE
  5
12A
330
1F
100
AcDbEntity
  8
0
  6
Continuous
 62
     7
370
    25
100
AcDbLine
 10
3235.5762898773
 20
6952.9106694407
 30
0.0
 11
3235.5762898773
 21
6956.5106694407
 31
0.0
  0
LINE
  5
12B
330
1F
100
AcDbEntity
  8
0
  6
Continuous
 62
     7
370
    25
100
AcDbLine
 10
3235.5762898773
 20
6952.9106694407
 30
0.0
 11
3235.0762898773
 21
6952.4106694407
 31
0.0
  0
LINE
  5
12C
330
1F
100
AcDbEntity
  8
0
  6
Continuous
 62
     7
370
    25
100
AcDbLine
 10
3165.4512898773
 20
6908.2856694407
 30
0.0
 11
3166.6735054869
 21
6908.2856694407
 31
0.0
  0
LINE
  5
12D
330
1F
100
AcDbEntity
  8
0
  6
Continuous
 62
     7
370
    25
100
AcDbLine
 10
3166.6735054869
 20
6908.2856694407
 30
0.0
 11
3166.6735054869
 21
6905.7856694407
 31
0.0
  0
LINE
  5
12E
330
1F
100
AcDbEntity
  8
0
  6
Continuous
 62
     7
370
    25
100
AcDbLine
 10
3165.4512898773
 20
6905.7856694407
 30
0.0
 11
3166.6735054869
 21
6905.7856694407
 31
0.0
  0
SPLINE
  5
12F
330
1F
100
AcDbEntity
  8
0
  6
Continuous
 62
     7
370
    25
100
AcDbSpline
210
0.0
220
0.0
230
1.0
 70
     8
 71
     3
 72
    10
 73
     6
 74
     0
 42
0.00000001
 43
0.00000001
 40
0.0
 40
0.0
 40
0.0
 40
0.0
 40
0.4990665516922463
 40
0.7492735597631919
 40
1.0
 40
1.0
 40
1.0
 40
1.0
 10
3166.262988932046
 20
6907.724025605129
 30
0.0
 10
3166.267691205209
 20
6907.722948263242
 30
0.0
 10
3166.274750962949
 20
6907.721330796016
 30
0.0
 10
3166.282992727368
 20
6907.707323559379
 30
0.0
 10
3166.28591090336
 20
6907.696886521567
 30
0.0
 10
3166.287371504327
 20
6907.69166259143
 30
0.0
  0
SPLINE
  5
130
330
1F
100
AcDbEntity
  8
0
  6
Continuous
 62
     7
370
    25
100
AcDbSpline
210
0.0
220
0.0
230
1.0
 70
     8
 71
     3
 72
    11
 73
     7
 74
     0
 42
0.00000001
 43
0.00000001
 40
0.0
 40
0.0
 40
0.0
 40
0.0
 40
0.2502250740515308
 40
0.5000221176555736
 40
0.7497760287819357
 40
1.0
 40
1.0
 40
1.0
 40
1.0
 10
3166.244904854884
 20
6907.697955399649
 30
0.0
 10
3166.246004872922
 20
6907.70189059549
 30
0.0
 10
3166.248203027328
 20
6907.709754255698
 30
0.0
 10
3166.252668169795
 20
6907.718053965234
 30
0.0
 10
3166.257664213179
 20
6907.723464320201
 30
0.0
 10
3166.26121291364
 20
6907.723838392923
 30
0.0
 10
3166.262988932046
 20
6907.724025605129
 30
0.0
  0
SPLINE
  5
131
330
1F
100
AcDbEntity
  8
0
  6
Continuous
 62
     7
370
    25
100
AcDbSpline
210
0.0
220
0.0
230
1.0
 70
     8
 71
     3
 72
    10
 73
     6
 74
     0
 42
0.00000001
 43
0.00000001
 40
0.0
 40
0.0
 40
0.0
 40
0.0
 40
0.2558734379475471
 40
0.6629806120860766
 40
1.0
 40
1.0
 40
1.0
 40
1.0
 10
3166.240518918172
 20
6907.661696838005
 30
0.0
 10
3166.240586108991
 20
6907.665022765267
 30
0.0
 10
3166.240760203693
 20
6907.673640405729
 30
0.0
 10
3166.241971643245
 20
6907.686544084483
 30
0.0
 10
3166.243990501747
 20
6907.694398216225
 30
0.0
 10
3166.244904854884
 20
6907.697955399649
 30
0.0
  0
SPLINE
  5
132
330
1F
100
AcDbEntity
  8
0
  6
Continuous
 62
     7
370
    25
100
AcDbSpline
210
0.0
220
0.0
230
1.0
 70
     8
 71
     3
 72
    10
 73
     6
 74
     0
 42
0.00000001
 43
0.00000001
 40
0.0
 40
0.0
 40
0.0
 40
0.0
 40
0.4205323629123043
 40
0.7090838547940549
 40
1.0
 40
1.0
 40
1.0
 40
1.0
 10
3166.241875213329
 20
6907.638323550334
 30
0.0
 10
3166.241534215724
 20
6907.641518942147
 30
0.0
 10
3166.240959240009
 20
6907.646906876451
 30
0.0
 10
3166.240626275434
 20
6907.654803617268
 30
0.0
 10
3166.240554801148
 20
6907.659392855273
 30
0.0
 10
3166.240518918172
 20
6907.661696838005
 30
0.0
  0
LINE
  5
133
330
1F
100
AcDbEntity
  8
0
  6
Continuous
 62
     7
370
    25
100
AcDbLine
 10
3166.3925736001
 20
6907.014436564
 30
0.0
 11
3166.2418752133
 21
6907.6383235503
 31
0.0
  0
LINE
  5
134
330
1F
100
AcDbEntity
  8
0
  6
Continuous
 62
     7
370
    25
100
AcDbLine
 10
3166.2456369876
 20
6906.4073303996
 30
0.0
 11
3166.3925736001
 21
6907.014436564
 31
0.0
  0
SPLINE
  5
135
330
1F
100
AcDbEntity
  8
0
  6
Continuous
 62
     7
370
    25
100
AcDbSpline
210
0.0
220
0.0
230
1.0
 70
     8
 71
     3
 72
     9
 73
     5
 74
     0
 42
0.00000001
 43
0.00000001
 40
0.0
 40
0.0
 40
0.0
 40
0.0
 40
0.500046113259848
 40
1.0
 40
1.0
 40
1.0
 40
1.0
 10
3166.240518918172
 20
6906.356088961294
 30
0.0
 10
3166.240691814536
 20
6906.36518860264
 30
0.0
 10
3166.241037575376
 20
6906.383386207034
 30
0.0
 10
3166.244103944433
 20
6906.399349492856
 30
0.0
 10
3166.245636987562
 20
6906.407330399648
 30
0.0
  0
SPLINE
  5
136
330
1F
100
AcDbEntity
  8
0
  6
Continuous
 62
     7
370
    25
100
AcDbSpline
210
0.0
220
0.0
230
1.0
 70
     8
 71
     3
 72
    10
 73
     6
 74
     0
 42
0.00000001
 43
0.00000001
 40
0.0
 40
0.0
 40
0.0
 40
0.0
 40
0.250327941372281
 40
0.4999666459574915
 40
1.0
 40
1.0
 40
1.0
 40
1.0
 10
3166.255500113876
 20
6906.307844098279
 30
0.0
 10
3166.253540406714
 20
6906.309308391735
 30
0.0
 10
3166.249626388121
 20
6906.312232946955
 30
0.0
 10
3166.243696189733
 20
6906.32875069287
 30
0.0
 10
3166.241790211182
 20
6906.345150346549
 30
0.0
 10
3166.240518918172
 20
6906.356088961294
 30
0.0
  0
LINE
  5
137
330
1F
100
AcDbEntity
  8
0
  6
Continuous
 62
     7
370
    25
100
AcDbLine
 10
3166.2628832228
 20
6906.3048475229
 30
0.0
 11
3166.2555001139
 21
6906.3078440983
 31
0.0
  0
SPLINE
  5
138
330
1F
100
AcDbEntity
  8
0
  6
Continuous
 62
     7
370
    25
100
AcDbSpline
210
0.0
220
0.0
230
1.0
 70
     8
 71
     3
 72
    10
 73
     6
 74
     0
 42
0.00000001
 43
0.00000001
 40
0.0
 40
0.0
 40
0.0
 40
0.0
 40
0.2502237850971473
 40
0.5004141625172195
 40
1.0
 40
1.0
 40
1.0
 40
1.0
 10
3166.282980448672
 20
6906.32342629006
 30
0.0
 10
3166.281568586509
 20
6906.320196598866
 30
0.0
 10
3166.278745050683
 20
6906.31373764768
 30
0.0
 10
3166.2718604469
 20
6906.30661572849
 30
0.0
 10
3166.266472970045
 20
6906.305554580152
 30
0.0
 10
3166.262883222754
 20
6906.304847522937
 30
0.0
  0
LINE
  5
139
330
1F
100
AcDbEntity
  8
0
  6
Continuous
 62
     7
370
    25
100
AcDbLine
 10
3166.4227763868
 20
6906.917946838
 30
0.0
 11
3166.2829804487
 21
6906.3234262901
 31
0.0
  0
LINE
  5
13A
330
1F
100
AcDbEntity
  8
0
  6
Continuous
 62
     7
370
    25
100
AcDbLine
 10
3166.5659335924
 20
6906.3396077969
 30
0.0
 11
3166.4227763868
 21
6906.917946838
 31
0.0
  0
SPLINE
  5
13B
330
1F
100
AcDbEntity
  8
0
  6
Continuous
 62
     7
370
    25
100
AcDbSpline
210
0.0
220
0.0
230
1.0
 70
     8
 71
     3
 72
     9
 73
     5
 74
     0
 42
0.00000001
 43
0.00000001
 40
0.0
 40
0.0
 40
0.0
 40
0.0
 40
0.4998923417080742
 40
1.0
 40
1.0
 40
1.0
 40
1.0
 10
3166.583728440394
 20
6906.304847522937
 30
0.0
 10
3166.580288761903
 20
6906.30923619767
 30
0.0
 10
3166.573407923361
 20
6906.31801543745
 30
0.0
 10
3166.568425393679
 20
6906.332409310677
 30
0.0
 10
3166.565933592428
 20
6906.33960779691
 30
0.0
  0
SPLINE
  5
13C
330
1F
100
AcDbEntity
  8
0
  6
Continuous
 62
     7
370
    25
100
AcDbSpline
210
0.0
220
0.0
230
1.0
 70
     8
 71
     3
 72
    11
 73
     7
 74
     0
 42
0.00000001
 43
0.00000001
 40
0.0
 40
0.0
 40
0.0
 40
0.0
 40
0.2500492632215804
 40
0.4998309992079434
 40
0.74976689178313
 40
1.0
 40
1.0
 40
1.0
 40
1.0
 10
3166.620098430002
 20
6906.338109509238
 30
0.0
 10
3166.617610069945
 20
6906.332686565342
 30
0.0
 10
3166.612636012124
 20
6906.321846479545
 30
0.0
 10
3166.603396780384
 20
6906.311835187556
 30
0.0
 10
3166.593680373047
 20
6906.305818232389
 30
0.0
 10
3166.587047065183
 20
6906.305171220913
 30
0.0
 10
3166.583728440394
 20
6906.304847522937
 30
0.0
  0
SPLINE
  5
13D
330
1F
100
AcDbEntity
  8
0
  6
Continuous
 62
     7
370
    25
100
AcDbSpline
210
0.0
220
0.0
230
1.0
 70
     8
 71
     3
 72
    10
 73
     6
 74
     0
 42
0.00000001
 43
0.00000001
 40
0.0
 40
0.0
 40
0.0
 40
0.0
 40
0.304705801472948
 40
0.5762581046432658
 40
1.0
 40
1.0
 40
1.0
 40
1.0
 10
3166.624131264753
 20
6906.369273892799
 30
0.0
 10
3166.623951783745
 20
6906.365965451158
 30
0.0
 10
3166.62361235015
 20
6906.359708542687
 30
0.0
 10
3166.622405955591
 20
6906.349092276702
 30
0.0
 10
3166.620972213494
 20
6906.34226831942
 30
0.0
 10
3166.620098430002
 20
6906.338109509238
 30
0.0
  0
SPLINE
  5
13E
330
1F
100
AcDbEntity
  8
0
  6
Continuous
 62
     7
370
    25
100
AcDbSpline
210
0.0
220
0.0
230
1.0
 70
     8
 71
     3
 72
    10
 73
     6
 74
     0
 42
0.00000001
 43
0.00000001
 40
0.0
 40
0.0
 40
0.0
 40
0.0
 40
0.3325154243635751
 40
0.6634226556241084
 40
1.0
 40
1.0
 40
1.0
 40
1.0
 10
3166.619217128288
 20
6906.396842385951
 30
0.0
 10
3166.619933172382
 20
6906.393975309019
 30
0.0
 10
3166.62136179746
 20
6906.388255021619
 30
0.0
 10
3166.623039489159
 20
6906.379009609012
 30
0.0
 10
3166.623765284406
 20
6906.372537457967
 30
0.0
 10
3166.624131264753
 20
6906.369273892799
 30
0.0
  0
LINE
  5
13F
330
1F
100
AcDbEntity
  8
0
  6
Continuous
 62
     7
370
    25
100
AcDbLine
 10
3166.4543729682
 20
6907.0120393038
 30
0.0
 11
3166.6192171283
 21
6906.396842386
 31
0.0
  0
LINE
  5
140
330
1F
100
AcDbEntity
  8
0
  6
Continuous
 62
     7
370
    25
100
AcDbLine
 10
3166.6079142886
 20
6907.6167482079
 30
0.0
 11
3166.4543729682
 21
6907.0120393038
 31
0.0
  0
SPLINE
  5
141
330
1F
100
AcDbEntity
  8
0
  6
Continuous
 62
     7
370
    25
100
AcDbSpline
210
0.0
220
0.0
230
1.0
 70
     8
 71
     3
 72
    10
 73
     6
 74
     0
 42
0.00000001
 43
0.00000001
 40
0.0
 40
0.0
 40
0.0
 40
0.0
 40
0.2492904803073617
 40
0.4993112821061945
 40
1.0
 40
1.0
 40
1.0
 40
1.0
 10
3166.624131264753
 20
6907.670087248964
 30
0.0
 10
3166.623701151764
 20
6907.664477282197
 30
0.0
 10
3166.622839665728
 20
6907.653240913703
 30
0.0
 10
3166.616800526062
 20
6907.635163440225
 30
0.0
 10
3166.611469702633
 20
6907.624116205362
 30
0.0
 10
3166.607914288618
 20
6907.616748207868
 30
0.0
  0
SPLINE
  5
142
330
1F
100
AcDbEntity
  8
0
  6
Continuous
 62
     7
370
    25
100
AcDbSpline
210
0.0
220
0.0
230
1.0
 70
     8
 71
     3
 72
    11
 73
     7
 74
     0
 42
0.00000001
 43
0.00000001
 40
0.0
 40
0.0
 40
0.0
 40
0.0
 40
0.2504737303710377
 40
0.5001199898305628
 40
0.7496164706793966
 40
1.0
 40
1.0
 40
1.0
 40
1.0
 10
3166.603032640668
 20
6907.718931427046
 30
0.0
 10
3166.605527920973
 20
6907.717183231461
 30
0.0
 10
3166.610510238117
 20
6907.713692615669
 30
0.0
 10
3166.61712985631
 20
6907.70325733255
 30
0.0
 10
3166.621886743196
 20
6907.687988247203
 30
0.0
 10
3166.623382206323
 20
6907.676061303256
 30
0.0
 10
3166.624131264753
 20
6907.670087248964
 30
0.0
  0
SPLINE
  5
143
330
1F
100
AcDbEntity
  8
0
  6
Continuous
 62
     7
370
    25
100
AcDbSpline
210
0.0
220
0.0
230
1.0
 70
     8
 71
     3
 72
     9
 73
     5
 74
     0
 42
0.00000001
 43
0.00000001
 40
0.0
 40
0.0
 40
0.0
 40
0.0
 40
0.500189805949995
 40
1.0
 40
1.0
 40
1.0
 40
1.0
 10
3166.590187362528
 20
6907.724025605129
 30
0.0
 10
3166.592356143175
 20
6907.723632982204
 30
0.0
 10
3166.596692058502
 20
6907.722848034329
 30
0.0
 10
3166.600919648227
 20
6907.720236632367
 30
0.0
 10
3166.603032640668
 20
6907.718931427046
 30
0.0
  0
SPLINE
  5
144
330
1F
100
AcDbEntity
  8
0
  6
Continuous
 62
     7
370
    25
100
AcDbSpline
210
0.0
220
0.0
230
1.0
 70
     8
 71
     3
 72
     9
 73
     5
 74
     0
 42
0.00000001
 43
0.00000001
 40
0.0
 40
0.0
 40
0.0
 40
0.0
 40
0.5018301460567145
 40
1.0
 40
1.0
 40
1.0
 40
1.0
 10
3166.571356650769
 20
6907.703948550334
 30
0.0
 10
3166.574166830881
 20
6907.709123035181
 30
0.0
 10
3166.579766693972
 20
6907.719434262769
 30
0.0
 10
3166.586722292851
 20
6907.722498896827
 30
0.0
 10
3166.590187362528
 20
6907.724025605129
 30
0.0
  0
LINE
  5
145
330
1F
100
AcDbEntity
  8
0
  6
Continuous
 62
     7
370
    25
100
AcDbLine
 10
3166.4233528281
 20
6907.1118252627
 30
0.0
 11
3166.5713566508
 21
6907.7039485503
 31
0.0
  0
LINE
  5
146
330
1F
100
AcDbEntity
  8
0
  6
Continuous
 62
     7
370
    25
100
AcDbLine
 10
3166.2873715043
 20
6907.6916625914
 30
0.0
 11
3166.4233528281
 21
6907.1118252627
 31
0.0
  0
SPLINE
  5
147
330
1F
100
AcDbEntity
  8
0
  6
Continuous
 62
     7
370
    25
100
AcDbSpline
210
0.0
220
0.0
230
1.0
 70
     8
 71
     3
 72
    10
 73
     6
 74
     0
 42
0.00000001
 43
0.00000001
 40
0.0
 40
0.0
 40
0.0
 40
0.0
 40
0.4990665516922249
 40
0.749273559763457
 40
1.0
 40
1.0
 40
1.0
 40
1.0
 10
3165.930423818628
 20
6907.724025605129
 30
0.0
 10
3165.934064001101
 20
6907.722948263242
 30
0.0
 10
3165.939529189
 20
6907.721330796016
 30
0.0
 10
3165.945926287806
 20
6907.707323559379
 30
0.0
 10
3165.948193593624
 20
6907.696886521567
 30
0.0
 10
3165.94932842205
 20
6907.69166259143
 30
0.0
  0
SPLINE
  5
148
330
1F
100
AcDbEntity
  8
0
  6
Continuous
 62
     7
370
    25
100
AcDbSpline
210
0.0
220
0.0
230
1.0
 70
     8
 71
     3
 72
    11
 73
     7
 74
     0
 42
0.00000001
 43
0.00000001
 40
0.0
 40
0.0
 40
0.0
 40
0.0
 40
0.2502250740515298
 40
0.5000221176560091
 40
0.7497760287822925
 40
1.0
 40
1.0
 40
1.0
 40
1.0
 10
3165.91646066836
 20
6907.697955399649
 30
0.0
 10
3165.917308606437
 20
6907.70189059549
 30
0.0
 10
3165.919003032127
 20
6907.709754255698
 30
0.0
 10
3165.922448202823
 20
6907.718053965234
 30
0.0
 10
3165.926306363635
 20
6907.723464320201
 30
0.0
 10
3165.929050473661
 20
6907.723838392923
 30
0.0
 10
3165.930423818628
 20
6907.724025605129
 30
0.0
  0
SPLINE
  5
149
330
1F
100
AcDbEntity
  8
0
  6
Continuous
 62
     7
370
    25
100
AcDbSpline
210
0.0
220
0.0
230
1.0
 70
     8
 71
     3
 72
    10
 73
     6
 74
     0
 42
0.00000001
 43
0.00000001
 40
0.0
 40
0.0
 40
0.0
 40
0.0
 40
0.2558734379474782
 40
0.6629806120344964
 40
1.0
 40
1.0
 40
1.0
 40
1.0
 10
3165.913081838661
 20
6907.661696838005
 30
0.0
 10
3165.913133583476
 20
6907.665022765267
 30
0.0
 10
3165.913267656829
 20
6907.673640405728
 30
0.0
 10
3165.914200423957
 20
6907.686544084482
 30
0.0
 10
3165.915756095415
 20
6907.694398216225
 30
0.0
 10
3165.91646066836
 20
6907.697955399649
 30
0.0
  0
SPLINE
  5
14A
330
1F
100
AcDbEntity
  8
0
  6
Continuous
 62
     7
370
    25
100
AcDbSpline
210
0.0
220
0.0
230
1.0
 70
     8
 71
     3
 72
    10
 73
     6
 74
     0
 42
0.00000001
 43
0.00000001
 40
0.0
 40
0.0
 40
0.0
 40
0.0
 40
0.4205323629123496
 40
0.7090838547939954
 40
0.9999999999999999
 40
0.9999999999999999
 40
0.9999999999999999
 40
0.9999999999999999
 10
3165.914126375401
 20
6907.638323550334
 30
0.0
 10
3165.913863742398
 20
6907.641518942147
 30
0.0
 10
3165.913420901755
 20
6907.646906876451
 30
0.0
 10
3165.913164509263
 20
6907.654803617268
 30
0.0
 10
3165.913109470395
 20
6907.659392855273
 30
0.0
 10
3165.913081838661
 20
6907.661696838005
 30
0.0
  0
LINE
  5
14B
330
1F
100
AcDbEntity
  8
0
  6
Continuous
 62
     7
370
    25
100
AcDbLine
 10
3166.0318426426
 20
6907.014436564
 30
0.0
 11
3165.9141263754
 21
6907.6383235503
 31
0.0
  0
LINE
  5
14C
330
1F
100
AcDbEntity
  8
0
  6
Continuous
 62
     7
370
    25
100
AcDbLine
 10
3165.9170249816
 20
6906.4073303996
 30
0.0
 11
3166.0318426426
 21
6907.014436564
 31
0.0
  0
SPLINE
  5
14D
330
1F
100
AcDbEntity
  8
0
  6
Continuous
 62
     7
370
    25
100
AcDbSpline
210
0.0
220
0.0
230
1.0
 70
     8
 71
     3
 72
     9
 73
     5
 74
     0
 42
0.00000001
 43
0.00000001
 40
0.0
 40
0.0
 40
0.0
 40
0.0
 40
0.5000461132597971
 40
1.0
 40
1.0
 40
1.0
 40
1.0
 10
3165.913081838661
 20
6906.356088961294
 30
0.0
 10
3165.913214859333
 20
6906.36518860264
 30
0.0
 10
3165.913480876142
 20
6906.383386207034
 30
0.0
 10
3165.915843685735
 20
6906.399349492856
 30
0.0
 10
3165.917024981575
 20
6906.407330399648
 30
0.0
  0
SPLINE
  5
14E
330
1F
100
AcDbEntity
  8
0
  6
Continuous
 62
     7
370
    25
100
AcDbSpline
210
0.0
220
0.0
230
1.0
 70
     8
 71
     3
 72
    10
 73
     6
 74
     0
 42
0.00000001
 43
0.00000001
 40
0.0
 40
0.0
 40
0.0
 40
0.0
 40
0.2503279413721708
 40
0.4999666459573227
 40
0.9999999999999999
 40
0.9999999999999999
 40
0.9999999999999999
 40
0.9999999999999999
 10
3165.924635412905
 20
6906.307844098279
 30
0.0
 10
3165.923122358002
 20
6906.309308391735
 30
0.0
 10
3165.920100414144
 20
6906.312232946955
 30
0.0
 10
3165.915528577142
 20
6906.32875069287
 30
0.0
 10
3165.914060830059
 20
6906.345150346549
 30
0.0
 10
3165.913081838661
 20
6906.356088961294
 30
0.0
  0
LINE
  5
14F
330
1F
100
AcDbEntity
  8
0
  6
Continuous
 62
     7
370
    25
100
AcDbLine
 10
3165.9303420523
 20
6906.3048475229
 30
0.0
 11
3165.9246354129
 21
6906.3078440983
 31
0.0
  0
SPLINE
  5
150
330
1F
100
AcDbEntity
  8
0
  6
Continuous
 62
     7
370
    25
100
AcDbSpline
210
0.0
220
0.0
230
1.0
 70
     8
 71
     3
 72
    10
 73
     6
 74
     0
 42
0.00000001
 43
0.00000001
 40
0.0
 40
0.0
 40
0.0
 40
0.0
 40
0.2502237850967984
 40
0.5004141625172555
 40
1.0
 40
1.0
 40
1.0
 40
1.0
 10
3165.945917408827
 20
6906.32342629006
 30
0.0
 10
3165.944821357848
 20
6906.320196598866
 30
0.0
 10
3165.942629402226
 20
6906.31373764768
 30
0.0
 10
3165.937290014388
 20
6906.30661572849
 30
0.0
 10
3165.933120352971
 20
6906.305554580152
 30
0.0
 10
3165.93034205226
 20
6906.304847522937
 30
0.0
  0
LINE
  5
151
330
1F
100
AcDbEntity
  8
0
  6
Continuous
 62
     7
370
    25
100
AcDbLine
 10
3166.055792588
 20
6906.917946838
 30
0.0
 11
3165.9459174088
 21
6906.3234262901
 31
0.0
  0
LINE
  5
152
330
1F
100
AcDbEntity
  8
0
  6
Continuous
 62
     7
370
    25
100
AcDbLine
 10
3166.1706896345
 20
6906.3396077969
 30
0.0
 11
3166.055792588
 21
6906.917946838
 31
0.0
  0
SPLINE
  5
153
330
1F
100
AcDbEntity
  8
0
  6
Continuous
 62
     7
370
    25
100
AcDbSpline
210
0.0
220
0.0
230
1.0
 70
     8
 71
     3
 72
     9
 73
     5
 74
     0
 42
0.00000001
 43
0.00000001
 40
0.0
 40
0.0
 40
0.0
 40
0.0
 40
0.4998923417080097
 40
1.0
 40
1.0
 40
1.0
 40
1.0
 10
3166.185117198935
 20
6906.304847522937
 30
0.0
 10
3166.182326545932
 20
6906.30923619767
 30
0.0
 10
3166.17674403792
 20
6906.31801543745
 30
0.0
 10
3166.172708058677
 20
6906.332409310677
 30
0.0
 10
3166.170689634549
 20
6906.33960779691
 30
0.0
  0
SPLINE
  5
154
330
1F
100
AcDbEntity
  8
0
  6
Continuous
 62
     7
370
    25
100
AcDbSpline
210
0.0
220
0.0
230
1.0
 70
     8
 71
     3
 72
    11
 73
     7
 74
     0
 42
0.00000001
 43
0.00000001
 40
0.0
 40
0.0
 40
0.0
 40
0.0
 40
0.2500492632218044
 40
0.4998309992075887
 40
0.7497668917829234
 40
1.0
 40
1.0
 40
1.0
 40
1.0
 10
3166.214696723543
 20
6906.338109509238
 30
0.0
 10
3166.212669241319
 20
6906.332686565342
 30
0.0
 10
3166.20861644607
 20
6906.321846479545
 30
0.0
 10
3166.201097039781
 20
6906.311835187556
 30
0.0
 10
3166.193197023041
 20
6906.305818232389
 30
0.0
 10
3166.187811540376
 20
6906.305171220913
 30
0.0
 10
3166.185117198935
 20
6906.304847522937
 30
0.0
  0
SPLINE
  5
155
330
1F
100
AcDbEntity
  8
0
  6
Continuous
 62
     7
370
    25
100
AcDbSpline
210
0.0
220
0.0
230
1.0
 70
     8
 71
     3
 72
    10
 73
     6
 74
     0
 42
0.00000001
 43
0.00000001
 40
0.0
 40
0.0
 40
0.0
 40
0.0
 40
0.3047058014730085
 40
0.5762581046499246
 40
1.0
 40
1.0
 40
1.0
 40
1.0
 10
3166.21798401494
 20
6906.369273892799
 30
0.0
 10
3166.217837685045
 20
6906.365965451158
 30
0.0
 10
3166.21756094667
 20
6906.359708542687
 30
0.0
 10
3166.216577423515
 20
6906.349092276702
 30
0.0
 10
3166.215408882315
 20
6906.34226831942
 30
0.0
 10
3166.214696723543
 20
6906.338109509238
 30
0.0
  0
SPLINE
  5
156
330
1F
100
AcDbEntity
  8
0
  6
Continuous
 62
     7
370
    25
100
AcDbSpline
210
0.0
220
0.0
230
1.0
 70
     8
 71
     3
 72
    10
 73
     6
 74
     0
 42
0.00000001
 43
0.00000001
 40
0.0
 40
0.0
 40
0.0
 40
0.0
 40
0.3325154243638357
 40
0.6634226556243702
 40
1.0
 40
1.0
 40
1.0
 40
1.0
 10
3166.213978540628
 20
6906.396842385951
 30
0.0
 10
3166.214562068402
 20
6906.393975309019
 30
0.0
 10
3166.21572630175
 20
6906.38825502162
 30
0.0
 10
3166.217093905432
 20
6906.379009609012
 30
0.0
 10
3166.217685636237
 20
6906.372537457967
 30
0.0
 10
3166.21798401494
 20
6906.369273892799
 30
0.0
  0
LINE
  5
157
330
1F
100
AcDbEntity
  8
0
  6
Continuous
 62
     7
370
    25
100
AcDbLine
 10
3166.0809619214
 20
6907.0120393038
 30
0.0
 11
3166.2139785406
 21
6906.396842386
 31
0.0
  0
LINE
  5
158
330
1F
100
AcDbEntity
  8
0
  6
Continuous
 62
     7
370
    25
100
AcDbLine
 10
3166.2047739376
 20
6907.6167482079
 30
0.0
 11
3166.0809619214
 21
6907.0120393038
 31
0.0
  0
SPLINE
  5
159
330
1F
100
AcDbEntity
  8
0
  6
Continuous
 62
     7
370
    25
100
AcDbSpline
210
0.0
220
0.0
230
1.0
 70
     8
 71
     3
 72
    10
 73
     6
 74
     0
 42
0.00000001
 43
0.00000001
 40
0.0
 40
0.0
 40
0.0
 40
0.0
 40
0.2492904803073272
 40
0.4993112821062603
 40
1.0
 40
1.0
 40
1.0
 40
1.0
 10
3166.21798401494
 20
6907.670087248964
 30
0.0
 10
3166.217633332632
 20
6907.664477282197
 30
0.0
 10
3166.216930940657
 20
6907.653240913703
 30
0.0
 10
3166.212008476943
 20
6907.635163440225
 30
0.0
 10
3166.207668501538
 20
6907.624116205362
 30
0.0
 10
3166.204773937577
 20
6907.616748207868
 30
0.0
  0
SPLINE
  5
15A
330
1F
100
AcDbEntity
  8
0
  6
Continuous
 62
     7
370
    25
100
AcDbSpline
210
0.0
220
0.0
230
1.0
 70
     8
 71
     3
 72
    11
 73
     7
 74
     0
 42
0.00000001
 43
0.00000001
 40
0.0
 40
0.0
 40
0.0
 40
0.0
 40
0.2504737303712323
 40
0.5001199898304621
 40
0.7496164706793018
 40
1.0
 40
1.0
 40
1.0
 40
1.0
 10
3166.200802097362
 20
6907.718931427046
 30
0.0
 10
3166.202832279313
 20
6907.717183231461
 30
0.0
 10
3166.206885936258
 20
6907.713692615669
 30
0.0
 10
3166.212277437762
 20
6907.70325733255
 30
0.0
 10
3166.216154066146
 20
6907.687988247203
 30
0.0
 10
3166.217373310817
 20
6907.676061303256
 30
0.0
 10
3166.21798401494
 20
6907.670087248964
 30
0.0
  0
SPLINE
  5
15B
330
1F
100
AcDbEntity
  8
0
  6
Continuous
 62
     7
370
    25
100
AcDbSpline
210
0.0
220
0.0
230
1.0
 70
     8
 71
     3
 72
     9
 73
     5
 74
     0
 42
0.00000001
 43
0.00000001
 40
0.0
 40
0.0
 40
0.0
 40
0.0
 40
0.5001898059498866
 40
1.0
 40
1.0
 40
1.0
 40
1.0
 10
3166.190361299865
 20
6907.724025605129
 30
0.0
 10
3166.192123158378
 20
6907.723632982204
 30
0.0
 10
3166.195645538265
 20
6907.722848034329
 30
0.0
 10
3166.199083679383
 20
6907.720236632367
 30
0.0
 10
3166.200802097362
 20
6907.718931427046
 30
0.0
  0
SPLINE
  5
15C
330
1F
100
AcDbEntity
  8
0
  6
Continuous
 62
     7
370
    25
100
AcDbSpline
210
0.0
220
0.0
230
1.0
 70
     8
 71
     3
 72
     9
 73
     5
 74
     0
 42
0.00000001
 43
0.00000001
 40
0.0
 40
0.0
 40
0.0
 40
0.0
 40
0.5018301460573817
 40
1.0
 40
1.0
 40
1.0
 40
1.0
 10
3166.175083309004
 20
6907.703948550334
 30
0.0
 10
3166.177361218773
 20
6907.709123035181
 30
0.0
 10
3166.181900423494
 20
6907.719434262769
 30
0.0
 10
3166.187547898211
 20
6907.722498896827
 30
0.0
 10
3166.190361299865
 20
6907.724025605129
 30
0.0
  0
LINE
  5
15D
330
1F
100
AcDbEntity
  8
0
  6
Continuous
 62
     7
370
    25
100
AcDbLine
 10
3166.0562507425
 20
6907.1118252627
 30
0.0
 11
3166.175083309
 21
6907.7039485503
 31
0.0
  0
LINE
  5
15E
330
1F
100
AcDbEntity
  8
0
  6
Continuous
 62
     7
370
    25
100
AcDbLine
 10
3165.949328422
 20
6907.6916625914
 30
0.0
 11
3166.0562507425
 21
6907.1118252627
 31
0.0
  0
SPLINE
  5
15F
330
1F
100
AcDbEntity
  8
0
  6
Continuous
 62
     7
370
    25
100
AcDbSpline
210
0.0
220
0.0
230
1.0
 70
     8
 71
     3
 72
    10
 73
     6
 74
     0
 42
0.00000001
 43
0.00000001
 40
0.0
 40
0.0
 40
0.0
 40
0.0
 40
0.4990665516922887
 40
0.7492735597631714
 40
1.0
 40
1.0
 40
1.0
 40
1.0
 10
3165.683827188887
 20
6907.724025605129
 30
0.0
 10
3165.686379515445
 20
6907.722948263242
 30
0.0
 10
3165.690211450883
 20
6907.721330796016
 30
0.0
 10
3165.694718605389
 20
6907.707323559379
 30
0.0
 10
3165.696318993033
 20
6907.696886521567
 30
0.0
 10
3165.6971200166
 20
6907.69166259143
 30
0.0
  0
SPLINE
  5
160
330
1F
100
AcDbEntity
  8
0
  6
Continuous
 62
     7
370
    25
100
AcDbSpline
210
0.0
220
0.0
230
1.0
 70
     8
 71
     3
 72
    11
 73
     7
 74
     0
 42
0.00000001
 43
0.00000001
 40
0.0
 40
0.0
 40
0.0
 40
0.0
 40
0.2502250740513963
 40
0.5000221176556823
 40
0.7497760287821593
 40
1.0
 40
1.0
 40
1.0
 40
1.0
 10
3165.67408379674
 20
6907.697955399649
 30
0.0
 10
3165.67467365315
 20
6907.70189059549
 30
0.0
 10
3165.675852356971
 20
6907.709754255698
 30
0.0
 10
3165.678253170965
 20
6907.718053965234
 30
0.0
 10
3165.680946141131
 20
6907.723464320201
 30
0.0
 10
3165.682866237901
 20
6907.723838392923
 30
0.0
 10
3165.683827188887
 20
6907.724025605129
 30
0.0
  0
SPLINE
  5
161
330
1F
100
AcDbEntity
  8
0
  6
Continuous
 62
     7
370
    25
100
AcDbSpline
210
0.0
220
0.0
230
1.0
 70
     8
 71
     3
 72
    10
 73
     6
 74
     0
 42
0.00000001
 43
0.00000001
 40
0.0
 40
0.0
 40
0.0
 40
0.0
 40
0.2558734379474394
 40
0.6629806120352179
 40
1.0
 40
1.0
 40
1.0
 40
1.0
 10
3165.671735989425
 20
6907.661696838005
 30
0.0
 10
3165.671771921987
 20
6907.665022765267
 30
0.0
 10
3165.671865025016
 20
6907.673640405728
 30
0.0
 10
3165.672512517592
 20
6907.686544084482
 30
0.0
 10
3165.673593990959
 20
6907.694398216225
 30
0.0
 10
3165.67408379674
 20
6907.697955399649
 30
0.0
  0
SPLINE
  5
162
330
1F
100
AcDbEntity
  8
0
  6
Continuous
 62
     7
370
    25
100
AcDbSpline
210
0.0
220
0.0
230
1.0
 70
     8
 71
     3
 72
    10
 73
     6
 74
     0
 42
0.00000001
 43
0.00000001
 40
0.0
 40
0.0
 40
0.0
 40
0.0
 40
0.4205323629124376
 40
0.7090838547939863
 40
1.0
 40
1.0
 40
1.0
 40
1.0
 10
3165.672461374511
 20
6907.638323550334
 30
0.0
 10
3165.672278965028
 20
6907.641518942147
 30
0.0
 10
3165.671971393885
 20
6907.646906876451
 30
0.0
 10
3165.671793388222
 20
6907.654803617268
 30
0.0
 10
3165.671755174337
 20
6907.659392855273
 30
0.0
 10
3165.671735989425
 20
6907.661696838005
 30
0.0
  0
LINE
  5
163
330
1F
100
AcDbEntity
  8
0
  6
Continuous
 62
     7
370
    25
100
AcDbLine
 10
3165.756362326
 20
6907.014436564
 30
0.0
 11
3165.6724613745
 21
6907.6383235503
 31
0.0
  0
LINE
  5
164
330
1F
100
AcDbEntity
  8
0
  6
Continuous
 62
     7
370
    25
100
AcDbLine
 10
3165.6744762963
 20
6906.4073303996
 30
0.0
 11
3165.756362326
 21
6907.014436564
 31
0.0
  0
SPLINE
  5
165
330
1F
100
AcDbEntity
  8
0
  6
Continuous
 62
     7
370
    25
100
AcDbSpline
210
0.0
220
0.0
230
1.0
 70
     8
 71
     3
 72
     9
 73
     5
 74
     0
 42
0.00000001
 43
0.00000001
 40
0.0
 40
0.0
 40
0.0
 40
0.0
 40
0.5000461132599507
 40
1.0
 40
1.0
 40
1.0
 40
1.0
 10
3165.671735989425
 20
6906.356088961294
 30
0.0
 10
3165.671828192882
 20
6906.36518860264
 30
0.0
 10
3165.672012582793
 20
6906.383386207034
 30
0.0
 10
3165.673655108947
 20
6906.399349492856
 30
0.0
 10
3165.674476296282
 20
6906.407330399648
 30
0.0
  0
SPLINE
  5
166
330
1F
100
AcDbEntity
  8
0
  6
Continuous
 62
     7
370
    25
100
AcDbSpline
210
0.0
220
0.0
230
1.0
 70
     8
 71
     3
 72
    10
 73
     6
 74
     0
 42
0.00000001
 43
0.00000001
 40
0.0
 40
0.0
 40
0.0
 40
0.0
 40
0.2503279413722466
 40
0.49996664595731
 40
1.0
 40
1.0
 40
1.0
 40
1.0
 10
3165.679780165966
 20
6906.307844098279
 30
0.0
 10
3165.678724472732
 20
6906.309308391735
 30
0.0
 10
3165.676615992939
 20
6906.312232946955
 30
0.0
 10
3165.6734348768
 20
6906.32875069287
 30
0.0
 10
3165.672415749906
 20
6906.345150346549
 30
0.0
 10
3165.671735989425
 20
6906.356088961294
 30
0.0
  0
LINE
  5
167
330
1F
100
AcDbEntity
  8
0
  6
Continuous
 62
     7
370
    25
100
AcDbLine
 10
3165.6837699442
 20
6906.3048475229
 30
0.0
 11
3165.679780166
 21
6906.3078440983
 31
0.0
  0
SPLINE
  5
168
330
1F
100
AcDbEntity
  8
0
  6
Continuous
 62
     7
370
    25
100
AcDbSpline
210
0.0
220
0.0
230
1.0
 70
     8
 71
     3
 72
    10
 73
     6
 74
     0
 42
0.00000001
 43
0.00000001
 40
0.0
 40
0.0
 40
0.0
 40
0.0
 40
0.2502237850972012
 40
0.5004141625174584
 40
1.0
 40
1.0
 40
1.0
 40
1.0
 10
3165.694713188971
 20
6906.32342629006
 30
0.0
 10
3165.69394070703
 20
6906.320196598866
 30
0.0
 10
3165.692395846283
 20
6906.31373764768
 30
0.0
 10
3165.688639466595
 20
6906.30661572849
 30
0.0
 10
3165.685717133495
 20
6906.305554580152
 30
0.0
 10
3165.683769944187
 20
6906.304847522937
 30
0.0
  0
LINE
  5
169
330
1F
100
AcDbEntity
  8
0
  6
Continuous
 62
     7
370
    25
100
AcDbLine
 10
3165.7738899122
 20
6906.917946838
 30
0.0
 11
3165.694713189
 21
6906.3234262901
 31
0.0
  0
LINE
  5
16A
330
1F
100
AcDbEntity
  8
0
  6
Continuous
 62
     7
370
    25
100
AcDbLine
 10
3165.859713558
 20
6906.3396077969
 30
0.0
 11
3165.7738899122
 21
6906.917946838
 31
0.0
  0
SPLINE
  5
16B
330
1F
100
AcDbEntity
  8
0
  6
Continuous
 62
     7
370
    25
100
AcDbSpline
210
0.0
220
0.0
230
1.0
 70
     8
 71
     3
 72
     9
 73
     5
 74
     0
 42
0.00000001
 43
0.00000001
 40
0.0
 40
0.0
 40
0.0
 40
0.0
 40
0.4998923417080138
 40
1.0
 40
1.0
 40
1.0
 40
1.0
 10
3165.87067172049
 20
6906.304847522937
 30
0.0
 10
3165.868549845228
 20
6906.30923619767
 30
0.0
 10
3165.864305180756
 20
6906.31801543745
 30
0.0
 10
3165.86124431863
 20
6906.332409310677
 30
0.0
 10
3165.859713558039
 20
6906.33960779691
 30
0.0
  0
SPLINE
  5
16C
330
1F
100
AcDbEntity
  8
0
  6
Continuous
 62
     7
370
    25
100
AcDbSpline
210
0.0
220
0.0
230
1.0
 70
     8
 71
     3
 72
    11
 73
     7
 74
     0
 42
0.00000001
 43
0.00000001
 40
0.0
 40
0.0
 40
0.0
 40
0.0
 40
0.2500492632217657
 40
0.4998309992076985
 40
0.7497668917830539
 40
1.0
 40
1.0
 40
1.0
 40
1.0
 10
3165.893251416117
 20
6906.338109509238
 30
0.0
 10
3165.891699162252
 20
6906.332686565342
 30
0.0
 10
3165.888596315275
 20
6906.321846479545
 30
0.0
 10
3165.882849956822
 20
6906.311835187556
 30
0.0
 10
3165.876822247024
 20
6906.305818232389
 30
0.0
 10
3165.872722708025
 20
6906.305171220913
 30
0.0
 10
3165.87067172049
 20
6906.304847522937
 30
0.0
  0
SPLINE
  5
16D
330
1F
100
AcDbEntity
  8
0
  6
Continuous
 62
     7
370
    25
100
AcDbSpline
210
0.0
220
0.0
230
1.0
 70
     8
 71
     3
 72
    10
 73
     6
 74
     0
 42
0.00000001
 43
0.00000001
 40
0.0
 40
0.0
 40
0.0
 40
0.0
 40
0.3047058014727364
 40
0.5762581046498431
 40
1.0
 40
1.0
 40
1.0
 40
1.0
 10
3165.895769896701
 20
6906.369273892799
 30
0.0
 10
3165.895657753642
 20
6906.365965451158
 30
0.0
 10
3165.895445669242
 20
6906.359708542687
 30
0.0
 10
3165.89469197887
 20
6906.349092276702
 30
0.0
 10
3165.893796909506
 20
6906.34226831942
 30
0.0
 10
3165.893251416117
 20
6906.338109509238
 30
0.0
  0
SPLINE
  5
16E
330
1F
100
AcDbEntity
  8
0
  6
Continuous
 62
     7
370
    25
100
AcDbSpline
210
0.0
220
0.0
230
1.0
 70
     8
 71
     3
 72
    10
 73
     6
 74
     0
 42
0.00000001
 43
0.00000001
 40
0.0
 40
0.0
 40
0.0
 40
0.0
 40
0.3325154243634386
 40
0.6634226556240458
 40
1.0
 40
1.0
 40
1.0
 40
1.0
 10
3165.892701435301
 20
6906.396842385951
 30
0.0
 10
3165.893148316544
 20
6906.393975309019
 30
0.0
 10
3165.894039917714
 20
6906.388255021619
 30
0.0
 10
3165.895087753476
 20
6906.379009609012
 30
0.0
 10
3165.895541231565
 20
6906.372537457967
 30
0.0
 10
3165.895769896701
 20
6906.369273892799
 30
0.0
  0
LINE
  5
16F
330
1F
100
AcDbEntity
  8
0
  6
Continuous
 62
     7
370
    25
100
AcDbLine
 10
3165.7924538491
 20
6907.0120393038
 30
0.0
 11
3165.8927014353
 21
6906.396842386
 31
0.0
  0
LINE
  5
170
330
1F
100
AcDbEntity
  8
0
  6
Continuous
 62
     7
370
    25
100
AcDbLine
 10
3165.8856602191
 20
6907.6167482079
 30
0.0
 11
3165.7924538491
 21
6907.0120393038
 31
0.0
  0
SPLINE
  5
171
330
1F
100
AcDbEntity
  8
0
  6
Continuous
 62
     7
370
    25
100
AcDbSpline
210
0.0
220
0.0
230
1.0
 70
     8
 71
     3
 72
    10
 73
     6
 74
     0
 42
0.00000001
 43
0.00000001
 40
0.0
 40
0.0
 40
0.0
 40
0.0
 40
0.2492904803073596
 40
0.4993112821061574
 40
1.0
 40
1.0
 40
1.0
 40
1.0
 10
3165.895769896701
 20
6907.670087248964
 30
0.0
 10
3165.895501127204
 20
6907.664477282197
 30
0.0
 10
3165.894962800823
 20
6907.653240913703
 30
0.0
 10
3165.891191854276
 20
6907.635163440225
 30
0.0
 10
3165.887873445257
 20
6907.624116205362
 30
0.0
 10
3165.885660219083
 20
6907.616748207868
 30
0.0
  0
SPLINE
  5
172
330
1F
100
AcDbEntity
  8
0
  6
Continuous
 62
     7
370
    25
100
AcDbSpline
210
0.0
220
0.0
230
1.0
 70
     8
 71
     3
 72
    11
 73
     7
 74
     0
 42
0.00000001
 43
0.00000001
 40
0.0
 40
0.0
 40
0.0
 40
0.0
 40
0.2504737303714804
 40
0.5001199898305949
 40
0.7496164706792972
 40
1.0
 40
1.0
 40
1.0
 40
1.0
 10
3165.882626299304
 20
6907.718931427046
 30
0.0
 10
3165.884177013265
 20
6907.717183231461
 30
0.0
 10
3165.887273318212
 20
6907.713692615669
 30
0.0
 10
3165.89139854196
 20
6907.70325733255
 30
0.0
 10
3165.894367473053
 20
6907.687988247203
 30
0.0
 10
3165.895301869449
 20
6907.676061303256
 30
0.0
 10
3165.895769896701
 20
6907.670087248964
 30
0.0
  0
SPLINE
  5
173
330
1F
100
AcDbEntity
  8
0
  6
Continuous
 62
     7
370
    25
100
AcDbSpline
210
0.0
220
0.0
230
1.0
 70
     8
 71
     3
 72
     9
 73
     5
 74
     0
 42
0.00000001
 43
0.00000001
 40
0.0
 40
0.0
 40
0.0
 40
0.0
 40
0.5001898058910704
 40
1.0
 40
1.0
 40
1.0
 40
1.0
 10
3165.874663882452
 20
6907.724025605129
 30
0.0
 10
3165.876006348389
 20
6907.723632982204
 30
0.0
 10
3165.878690261419
 20
6907.722848034329
 30
0.0
 10
3165.881314618754
 20
6907.720236632368
 30
0.0
 10
3165.882626299304
 20
6907.718931427046
 30
0.0
  0
SPLINE
  5
174
330
1F
100
AcDbEntity
  8
0
  6
Continuous
 62
     7
370
    25
100
AcDbSpline
210
0.0
220
0.0
230
1.0
 70
     8
 71
     3
 72
     9
 73
     5
 74
     0
 42
0.00000001
 43
0.00000001
 40
0.0
 40
0.0
 40
0.0
 40
0.0
 40
0.5018301460565084
 40
1.0
 40
1.0
 40
1.0
 40
1.0
 10
3165.863046750163
 20
6907.703948550334
 30
0.0
 10
3165.864776266534
 20
6907.709123035181
 30
0.0
 10
3165.868222684378
 20
6907.719434262769
 30
0.0
 10
3165.872522062087
 20
6907.722498896827
 30
0.0
 10
3165.874663882452
 20
6907.724025605129
 30
0.0
  0
LINE
  5
175
330
1F
100
AcDbEntity
  8
0
  6
Continuous
 62
     7
370
    25
100
AcDbLine
 10
3165.7742265372
 20
6907.1118252627
 30
0.0
 11
3165.8630467502
 21
6907.7039485503
 31
0.0
  0
LINE
  5
176
330
1F
100
AcDbEntity
  8
0
  6
Continuous
 62
     7
370
    25
100
AcDbLine
 10
3165.6971200166
 20
6907.6916625914
 30
0.0
 11
3165.7742265372
 21
6907.1118252627
 31
0.0
  0
SPLINE
  5
177
330
1F
100
AcDbEntity
  8
0
  6
Continuous
 62
     7
370
    25
100
AcDbSpline
210
0.0
220
0.0
230
1.0
 70
     8
 71
     3
 72
    10
 73
     6
 74
     0
 42
0.00000001
 43
0.00000001
 40
0.0
 40
0.0
 40
0.0
 40
0.0
 40
0.4990665516923494
 40
0.7492735597632537
 40
1.0
 40
1.0
 40
1.0
 40
1.0
 10
3165.524944454656
 20
6907.724025605129
 30
0.0
 10
3165.526390859923
 20
6907.722948263242
 30
0.0
 10
3165.528562420448
 20
6907.721330796016
 30
0.0
 10
3165.531147728996
 20
6907.707323559379
 30
0.0
 10
3165.532069870918
 20
6907.696886521567
 30
0.0
 10
3165.532531419977
 20
6907.69166259143
 30
0.0
  0
SPLINE
  5
178
330
1F
100
AcDbEntity
  8
0
  6
Continuous
 62
     7
370
    25
100
AcDbSpline
210
0.0
220
0.0
230
1.0
 70
     8
 71
     3
 72
    11
 73
     7
 74
     0
 42
0.00000001
 43
0.00000001
 40
0.0
 40
0.0
 40
0.0
 40
0.0
 40
0.2502250740515236
 40
0.5000221176555042
 40
0.7497760287822737
 40
0.9999999999999999
 40
0.9999999999999999
 40
0.9999999999999999
 40
0.9999999999999999
 10
3165.519489784396
 20
6907.697955399649
 30
0.0
 10
3165.51981738413
 20
6907.70189059549
 30
0.0
 10
3165.520472023214
 20
6907.709754255698
 30
0.0
 10
3165.521811487536
 20
6907.718053965234
 30
0.0
 10
3165.523320206202
 20
6907.723464320201
 30
0.0
 10
3165.524402699265
 20
6907.723838392923
 30
0.0
 10
3165.524944454656
 20
6907.724025605129
 30
0.0
  0
SPLINE
  5
179
330
1F
100
AcDbEntity
  8
0
  6
Continuous
 62
     7
370
    25
100
AcDbSpline
210
0.0
220
0.0
230
1.0
 70
     8
 71
     3
 72
    10
 73
     6
 74
     0
 42
0.00000001
 43
0.00000001
 40
0.0
 40
0.0
 40
0.0
 40
0.0
 40
0.2558734379473929
 40
0.6629806120358913
 40
1.0
 40
1.0
 40
1.0
 40
1.0
 10
3165.518189617251
 20
6907.661696838005
 30
0.0
 10
3165.518209483229
 20
6907.665022765267
 30
0.0
 10
3165.518260956952
 20
6907.673640405728
 30
0.0
 10
3165.518618592021
 20
6907.686544084482
 30
0.0
 10
3165.519218212624
 20
6907.694398216225
 30
0.0
 10
3165.519489784396
 20
6907.697955399649
 30
0.0
  0
SPLINE
  5
17A
330
1F
100
AcDbEntity
  8
0
  6
Continuous
 62
     7
370
    25
100
AcDbSpline
210
0.0
220
0.0
230
1.0
 70
     8
 71
     3
 72
    10
 73
     6
 74
     0
 42
0.00000001
 43
0.00000001
 40
0.0
 40
0.0
 40
0.0
 40
0.0
 40
0.4205323629124315
 40
0.7090838547940119
 40
0.9999999999999999
 40
0.9999999999999999
 40
0.9999999999999999
 40
0.9999999999999999
 10
3165.518590716407
 20
6907.638323550334
 30
0.0
 10
3165.518489821538
 20
6907.641518942147
 30
0.0
 10
3165.518319696883
 20
6907.646906876451
 30
0.0
 10
3165.518221337976
 20
6907.654803617268
 30
0.0
 10
3165.518200219552
 20
6907.659392855273
 30
0.0
 10
3165.518189617251
 20
6907.661696838005
 30
0.0
  0
LINE
  5
17B
330
1F
100
AcDbEntity
  8
0
  6
Continuous
 62
     7
370
    25
100
AcDbLine
 10
3165.5680825009
 20
6907.014436564
 30
0.0
 11
3165.5185907164
 21
6907.6383235503
 31
0.0
  0
LINE
  5
17C
330
1F
100
AcDbEntity
  8
0
  6
Continuous
 62
     7
370
    25
100
AcDbLine
 10
3165.5197076921
 20
6906.4073303996
 30
0.0
 11
3165.5680825009
 21
6907.014436564
 31
0.0
  0
SPLINE
  5
17D
330
1F
100
AcDbEntity
  8
0
  6
Continuous
 62
     7
370
    25
100
AcDbSpline
210
0.0
220
0.0
230
1.0
 70
     8
 71
     3
 72
     9
 73
     5
 74
     0
 42
0.00000001
 43
0.00000001
 40
0.0
 40
0.0
 40
0.0
 40
0.0
 40
0.5000461132599276
 40
1.0
 40
1.0
 40
1.0
 40
1.0
 10
3165.518189617251
 20
6906.356088961294
 30
0.0
 10
3165.518240350879
 20
6906.36518860264
 30
0.0
 10
3165.518341808779
 20
6906.383386207034
 30
0.0
 10
3165.519252425687
 20
6906.399349492856
 30
0.0
 10
3165.51970769215
 20
6906.407330399648
 30
0.0
  0
SPLINE
  5
17E
330
1F
100
AcDbEntity
  8
0
  6
Continuous
 62
     7
370
    25
100
AcDbSpline
210
0.0
220
0.0
230
1.0
 70
     8
 71
     3
 72
    10
 73
     6
 74
     0
 42
0.00000001
 43
0.00000001
 40
0.0
 40
0.0
 40
0.0
 40
0.0
 40
0.2503279413721825
 40
0.4999666459573391
 40
1.0
 40
1.0
 40
1.0
 40
1.0
 10
3165.522667459381
 20
6906.307844098279
 30
0.0
 10
3165.522076600014
 20
6906.309308391735
 30
0.0
 10
3165.520896508115
 20
6906.312232946955
 30
0.0
 10
3165.519128628791
 20
6906.32875069287
 30
0.0
 10
3165.518565335468
 20
6906.345150346549
 30
0.0
 10
3165.518189617251
 20
6906.356088961294
 30
0.0
  0
LINE
  5
17F
330
1F
100
AcDbEntity
  8
0
  6
Continuous
 62
     7
370
    25
100
AcDbLine
 10
3165.5249121368
 20
6906.3048475229
 30
0.0
 11
3165.5226674594
 21
6906.3078440983
 31
0.0
  0
SPLINE
  5
180
330
1F
100
AcDbEntity
  8
0
  6
Continuous
 62
     7
370
    25
100
AcDbSpline
210
0.0
220
0.0
230
1.0
 70
     8
 71
     3
 72
    10
 73
     6
 74
     0
 42
0.00000001
 43
0.00000001
 40
0.0
 40
0.0
 40
0.0
 40
0.0
 40
0.2502237850968822
 40
0.5004141625175469
 40
1.0
 40
1.0
 40
1.0
 40
1.0
 10
3165.531145813478
 20
6906.32342629006
 30
0.0
 10
3165.530702368204
 20
6906.320196598866
 30
0.0
 10
3165.529815536861
 20
6906.31373764768
 30
0.0
 10
3165.527668752994
 20
6906.30661572849
 30
0.0
 10
3165.526014432494
 20
6906.305554580152
 30
0.0
 10
3165.524912136801
 20
6906.304847522937
 30
0.0
  0
LINE
  5
181
330
1F
100
AcDbEntity
  8
0
  6
Continuous
 62
     7
370
    25
100
AcDbLine
 10
3165.5790636677
 20
6906.917946838
 30
0.0
 11
3165.5311458135
 21
6906.3234262901
 31
0.0
  0
LINE
  5
182
330
1F
100
AcDbEntity
  8
0
  6
Continuous
 62
     7
370
    25
100
AcDbLine
 10
3165.6352064527
 20
6906.3396077969
 30
0.0
 11
3165.5790636677
 21
6906.917946838
 31
0.0
  0
SPLINE
  5
183
330
1F
100
AcDbEntity
  8
0
  6
Continuous
 62
     7
370
    25
100
AcDbSpline
210
0.0
220
0.0
230
1.0
 70
     8
 71
     3
 72
     9
 73
     5
 74
     0
 42
0.00000001
 43
0.00000001
 40
0.0
 40
0.0
 40
0.0
 40
0.0
 40
0.4998923417079671
 40
1.0
 40
1.0
 40
1.0
 40
1.0
 10
3165.642617651287
 20
6906.304847522937
 30
0.0
 10
3165.641179572407
 20
6906.30923619767
 30
0.0
 10
3165.638302795227
 20
6906.31801543745
 30
0.0
 10
3165.636238715009
 20
6906.332409310677
 30
0.0
 10
3165.635206452685
 20
6906.33960779691
 30
0.0
  0
SPLINE
  5
184
330
1F
100
AcDbEntity
  8
0
  6
Continuous
 62
     7
370
    25
100
AcDbSpline
210
0.0
220
0.0
230
1.0
 70
     8
 71
     3
 72
    11
 73
     7
 74
     0
 42
0.00000001
 43
0.00000001
 40
0.0
 40
0.0
 40
0.0
 40
0.0
 40
0.2500492632218598
 40
0.4998309992077721
 40
0.7497668917828321
 40
1.0
 40
1.0
 40
1.0
 40
1.0
 10
3165.658037698766
 20
6906.338109509238
 30
0.0
 10
3165.656971660119
 20
6906.332686565342
 30
0.0
 10
3165.654840723376
 20
6906.321846479545
 30
0.0
 10
3165.650908085505
 20
6906.311835187556
 30
0.0
 10
3165.646795346802
 20
6906.305818232389
 30
0.0
 10
3165.64401076802
 20
6906.305171220913
 30
0.0
 10
3165.642617651287
 20
6906.304847522937
 30
0.0
  0
SPLINE
  5
185
330
1F
100
AcDbEntity
  8
0
  6
Continuous
 62
     7
370
    25
100
AcDbSpline
210
0.0
220
0.0
230
1.0
 70
     8
 71
     3
 72
    10
 73
     6
 74
     0
 42
0.00000001
 43
0.00000001
 40
0.0
 40
0.0
 40
0.0
 40
0.0
 40
0.3047058014729814
 40
0.576258104645855
 40
1.0
 40
1.0
 40
1.0
 40
1.0
 10
3165.659769542723
 20
6906.369273892799
 30
0.0
 10
3165.659692380249
 20
6906.365965451158
 30
0.0
 10
3165.659546450959
 20
6906.359708542687
 30
0.0
 10
3165.659027927994
 20
6906.349092276702
 30
0.0
 10
3165.658412665769
 20
6906.34226831942
 30
0.0
 10
3165.658037698766
 20
6906.338109509238
 30
0.0
  0
SPLINE
  5
186
330
1F
100
AcDbEntity
  8
0
  6
Continuous
 62
     7
370
    25
100
AcDbSpline
210
0.0
220
0.0
230
1.0
 70
     8
 71
     3
 72
    10
 73
     6
 74
     0
 42
0.00000001
 43
0.00000001
 40
0.0
 40
0.0
 40
0.0
 40
0.0
 40
0.3325154243637373
 40
0.6634226556244398
 40
1.0
 40
1.0
 40
1.0
 40
1.0
 10
3165.657659812817
 20
6906.396842385951
 30
0.0
 10
3165.657966884502
 20
6906.393975309019
 30
0.0
 10
3165.658579542738
 20
6906.388255021619
 30
0.0
 10
3165.659300193994
 20
6906.379009609012
 30
0.0
 10
3165.659612209648
 20
6906.372537457967
 30
0.0
 10
3165.659769542723
 20
6906.369273892799
 30
0.0
  0
LINE
  5
187
330
1F
100
AcDbEntity
  8
0
  6
Continuous
 62
     7
370
    25
100
AcDbLine
 10
3165.5908908125
 20
6907.0120393038
 30
0.0
 11
3165.6576598128
 21
6906.396842386
 31
0.0
  0
LINE
  5
188
330
1F
100
AcDbEntity
  8
0
  6
Continuous
 62
     7
370
    25
100
AcDbLine
 10
3165.6528318212
 20
6907.6167482079
 30
0.0
 11
3165.5908908125
 21
6907.0120393038
 31
0.0
  0
SPLINE
  5
189
330
1F
100
AcDbEntity
  8
0
  6
Continuous
 62
     7
370
    25
100
AcDbSpline
210
0.0
220
0.0
230
1.0
 70
     8
 71
     3
 72
    10
 73
     6
 74
     0
 42
0.00000001
 43
0.00000001
 40
0.0
 40
0.0
 40
0.0
 40
0.0
 40
0.2492904803073137
 40
0.499311282106247
 40
1.0
 40
1.0
 40
1.0
 40
1.0
 10
3165.659769542723
 20
6907.670087248964
 30
0.0
 10
3165.659584588388
 20
6907.664477282197
 30
0.0
 10
3165.659214137877
 20
6907.653240913703
 30
0.0
 10
3165.656621399271
 20
6907.635163440225
 30
0.0
 10
3165.654348044348
 20
6907.624116205362
 30
0.0
 10
3165.652831821186
 20
6907.616748207868
 30
0.0
  0
SPLINE
  5
18A
330
1F
100
AcDbEntity
  8
0
  6
Continuous
 62
     7
370
    25
100
AcDbSpline
210
0.0
220
0.0
230
1.0
 70
     8
 71
     3
 72
    11
 73
     7
 74
     0
 42
0.00000001
 43
0.00000001
 40
0.0
 40
0.0
 40
0.0
 40
0.0
 40
0.2504737303715101
 40
0.5001199898305102
 40
0.7496164706793691
 40
1.0
 40
1.0
 40
1.0
 40
1.0
 10
3165.650757295936
 20
6907.718931427046
 30
0.0
 10
3165.651817565949
 20
6907.717183231461
 30
0.0
 10
3165.653934603241
 20
6907.713692615669
 30
0.0
 10
3165.656764350884
 20
6907.70325733255
 30
0.0
 10
3165.658804570581
 20
6907.687988247203
 30
0.0
 10
3165.659447505041
 20
6907.676061303256
 30
0.0
 10
3165.659769542723
 20
6907.670087248964
 30
0.0
  0
SPLINE
  5
18B
330
1F
100
AcDbEntity
  8
0
  6
Continuous
 62
     7
370
    25
100
AcDbSpline
210
0.0
220
0.0
230
1.0
 70
     8
 71
     3
 72
     9
 73
     5
 74
     0
 42
0.00000001
 43
0.00000001
 40
0.0
 40
0.0
 40
0.0
 40
0.0
 40
0.5001898059386075
 40
1.0
 40
1.0
 40
1.0
 40
1.0
 10
3165.645329617744
 20
6907.724025605129
 30
0.0
 10
3165.646243189128
 20
6907.723632982204
 30
0.0
 10
3165.648069638554
 20
6907.722848034329
 30
0.0
 10
3165.649861636897
 20
6907.720236632367
 30
0.0
 10
3165.650757295936
 20
6907.718931427046
 30
0.0
  0
SPLINE
  5
18C
330
1F
100
AcDbEntity
  8
0
  6
Continuous
 62
     7
370
    25
100
AcDbSpline
210
0.0
220
0.0
230
1.0
 70
     8
 71
     3
 72
     9
 73
     5
 74
     0
 42
0.00000001
 43
0.00000001
 40
0.0
 40
0.0
 40
0.0
 40
0.0
 40
0.501830146056758
 40
1.0
 40
1.0
 40
1.0
 40
1.0
 10
3165.637455570134
 20
6907.703948550334
 30
0.0
 10
3165.638624451582
 20
6907.709123035181
 30
0.0
 10
3165.640953688792
 20
6907.719434262769
 30
0.0
 10
3165.643874538481
 20
6907.722498896827
 30
0.0
 10
3165.645329617744
 20
6907.724025605129
 30
0.0
  0
LINE
  5
18D
330
1F
100
AcDbEntity
  8
0
  6
Continuous
 62
     7
370
    25
100
AcDbLine
 10
3165.5792763805
 20
6907.1118252627
 30
0.0
 11
3165.6374555701
 21
6907.7039485503
 31
0.0
  0
LINE
  5
18E
330
1F
100
AcDbEntity
  8
0
  6
Continuous
 62
     7
370
    25
100
AcDbLine
 10
3165.53253142
 20
6907.6916625914
 30
0.0
 11
3165.5792763805
 21
6907.1118252627
 31
0.0
  0
SPLINE
  5
18F
330
1F
100
AcDbEntity
  8
0
  6
Continuous
 62
     7
370
    25
100
AcDbSpline
210
0.0
220
0.0
230
1.0
 70
     8
 71
     3
 72
    10
 73
     6
 74
     0
 42
0.00000001
 43
0.00000001
 40
0.0
 40
0.0
 40
0.0
 40
0.0
 40
0.4990665516922619
 40
0.7492735597632674
 40
1.0
 40
1.0
 40
1.0
 40
1.0
 10
3165.454900188499
 20
6907.724025605129
 30
0.0
 10
3165.455230434814
 20
6907.722948263242
 30
0.0
 10
3165.455726250112
 20
6907.721330796016
 30
0.0
 10
3165.45637141388
 20
6907.707323559379
 30
0.0
 10
3165.456608783156
 20
6907.696886521567
 30
0.0
 10
3165.456727590861
 20
6907.69166259143
 30
0.0
  0
SPLINE
  5
190
330
1F
100
AcDbEntity
  8
0
  6
Continuous
 62
     7
370
    25
100
AcDbSpline
210
0.0
220
0.0
230
1.0
 70
     8
 71
     3
 72
    11
 73
     7
 74
     0
 42
0.00000001
 43
0.00000001
 40
0.0
 40
0.0
 40
0.0
 40
0.0
 40
0.2502250740514369
 40
0.500022117655584
 40
0.7497760287821579
 40
1.0
 40
1.0
 40
1.0
 40
1.0
 10
3165.453772848301
 20
6907.697955399649
 30
0.0
 10
3165.453835872609
 20
6907.70189059549
 30
0.0
 10
3165.453961813418
 20
6907.709754255698
 30
0.0
 10
3165.454230447334
 20
6907.718053965234
 30
0.0
 10
3165.454544235784
 20
6907.723464320201
 30
0.0
 10
3165.45478146325
 20
6907.723838392923
 30
0.0
 10
3165.454900188499
 20
6907.724025605129
 30
0.0
  0
SPLINE
  5
191
330
1F
100
AcDbEntity
  8
0
  6
Continuous
 62
     7
370
    25
100
AcDbSpline
210
0.0
220
0.0
230
1.0
 70
     8
 71
     3
 72
    10
 73
     6
 74
     0
 42
0.00000001
 43
0.00000001
 40
0.0
 40
0.0
 40
0.0
 40
0.0
 40
0.2558734379475263
 40
0.6629806120875117
 40
1.0
 40
1.0
 40
1.0
 40
1.0
 10
3165.453529523916
 20
6907.661696838005
 30
0.0
 10
3165.453533182699
 20
6907.665022765267
 30
0.0
 10
3165.453542662784
 20
6907.673640405729
 30
0.0
 10
3165.453607909003
 20
6907.686544084483
 30
0.0
 10
3165.453721432726
 20
6907.694398216225
 30
0.0
 10
3165.453772848301
 20
6907.697955399649
 30
0.0
  0
SPLINE
  5
192
330
1F
100
AcDbEntity
  8
0
  6
Continuous
 62
     7
370
    25
100
AcDbSpline
210
0.0
220
0.0
230
1.0
 70
     8
 71
     3
 72
    10
 73
     6
 74
     0
 42
0.00000001
 43
0.00000001
 40
0.0
 40
0.0
 40
0.0
 40
0.0
 40
0.4205323629124291
 40
0.7090838547940008
 40
1.0
 40
1.0
 40
1.0
 40
1.0
 10
3165.453603498159
 20
6907.638323550334
 30
0.0
 10
3165.453584832038
 20
6907.641518942147
 30
0.0
 10
3165.453553358016
 20
6907.646906876451
 30
0.0
 10
3165.453535342049
 20
6907.654803617268
 30
0.0
 10
3165.453531468563
 20
6907.659392855273
 30
0.0
 10
3165.453529523916
 20
6907.661696838005
 30
0.0
  0
LINE
  5
193
330
1F
100
AcDbEntity
  8
0
  6
Continuous
 62
     7
370
    25
100
AcDbLine
 10
3165.4683358126
 20
6907.014436564
 30
0.0
 11
3165.4536034982
 21
6907.6383235503
 31
0.0
  0
LINE
  5
194
330
1F
100
AcDbEntity
  8
0
  6
Continuous
 62
     7
370
    25
100
AcDbLine
 10
3165.4538146219
 20
6906.4073303996
 30
0.0
 11
3165.4683358126
 21
6907.014436564
 31
0.0
  0
SPLINE
  5
195
330
1F
100
AcDbEntity
  8
0
  6
Continuous
 62
     7
370
    25
100
AcDbSpline
210
0.0
220
0.0
230
1.0
 70
     8
 71
     3
 72
     9
 73
     5
 74
     0
 42
0.00000001
 43
0.00000001
 40
0.0
 40
0.0
 40
0.0
 40
0.0
 40
0.5000461132598952
 40
0.9999999999999999
 40
0.9999999999999999
 40
0.9999999999999999
 40
0.9999999999999999
 10
3165.453529523916
 20
6906.356088961294
 30
0.0
 10
3165.453538428621
 20
6906.36518860264
 30
0.0
 10
3165.453556236391
 20
6906.383386207034
 30
0.0
 10
3165.453728498704
 20
6906.399349492856
 30
0.0
 10
3165.453814621917
 20
6906.407330399648
 30
0.0
  0
SPLINE
  5
196
330
1F
100
AcDbEntity
  8
0
  6
Continuous
 62
     7
370
    25
100
AcDbSpline
210
0.0
220
0.0
230
1.0
 70
     8
 71
     3
 72
    10
 73
     6
 74
     0
 42
0.00000001
 43
0.00000001
 40
0.0
 40
0.0
 40
0.0
 40
0.0
 40
0.2503279413722235
 40
0.4999666459572479
 40
1.0
 40
1.0
 40
1.0
 40
1.0
 10
3165.454409337452
 20
6906.307844098279
 30
0.0
 10
3165.454287494058
 20
6906.309308391735
 30
0.0
 10
3165.454044142745
 20
6906.312232946955
 30
0.0
 10
3165.453702013293
 20
6906.32875069287
 30
0.0
 10
3165.453598540534
 20
6906.345150346549
 30
0.0
 10
3165.453529523916
 20
6906.356088961294
 30
0.0
  0
LINE
  5
197
330
1F
100
AcDbEntity
  8
0
  6
Continuous
 62
     7
370
    25
100
AcDbLine
 10
3165.4548930262
 20
6906.3048475229
 30
0.0
 11
3165.4544093375
 21
6906.3078440983
 31
0.0
  0
SPLINE
  5
198
330
1F
100
AcDbEntity
  8
0
  6
Continuous
 62
     7
370
    25
100
AcDbSpline
210
0.0
220
0.0
230
1.0
 70
     8
 71
     3
 72
    10
 73
     6
 74
     0
 42
0.00000001
 43
0.00000001
 40
0.0
 40
0.0
 40
0.0
 40
0.0
 40
0.2502237850968987
 40
0.5004141625175067
 40
1.0
 40
1.0
 40
1.0
 40
1.0
 10
3165.45637301282
 20
6906.32342629006
 30
0.0
 10
3165.456261742921
 20
6906.320196598866
 30
0.0
 10
3165.456039217978
 20
6906.31373764768
 30
0.0
 10
3165.455517224872
 20
6906.30661572849
 30
0.0
 10
3165.45514262626
 20
6906.305554580152
 30
0.0
 10
3165.454893026236
 20
6906.304847522937
 30
0.0
  0
LINE
  5
199
330
1F
100
AcDbEntity
  8
0
  6
Continuous
 62
     7
370
    25
100
AcDbLine
 10
3165.4726928353
 20
6906.917946838
 30
0.0
 11
3165.4563730128
 21
6906.3234262901
 31
0.0
  0
LINE
  5
19A
330
1F
100
AcDbEntity
  8
0
  6
Continuous
 62
     7
370
    25
100
AcDbLine
 10
3165.4987573806
 20
6906.3396077969
 30
0.0
 11
3165.4726928353
 21
6906.917946838
 31
0.0
  0
SPLINE
  5
19B
330
1F
100
AcDbEntity
  8
0
  6
Continuous
 62
     7
370
    25
100
AcDbSpline
210
0.0
220
0.0
230
1.0
 70
     8
 71
     3
 72
     9
 73
     5
 74
     0
 42
0.00000001
 43
0.00000001
 40
0.0
 40
0.0
 40
0.0
 40
0.0
 40
0.4998923417081672
 40
1.0
 40
1.0
 40
1.0
 40
1.0
 10
3165.502569158851
 20
6906.304847522937
 30
0.0
 10
3165.501825055079
 20
6906.30923619767
 30
0.0
 10
3165.50033652703
 20
6906.31801543745
 30
0.0
 10
3165.499283838288
 20
6906.332409310677
 30
0.0
 10
3165.498757380586
 20
6906.33960779691
 30
0.0
  0
SPLINE
  5
19C
330
1F
100
AcDbEntity
  8
0
  6
Continuous
 62
     7
370
    25
100
AcDbSpline
210
0.0
220
0.0
230
1.0
 70
     8
 71
     3
 72
    11
 73
     7
 74
     0
 42
0.00000001
 43
0.00000001
 40
0.0
 40
0.0
 40
0.0
 40
0.0
 40
0.2500492632217298
 40
0.4998309992078896
 40
0.7497668917829514
 40
1.0
 40
1.0
 40
1.0
 40
1.0
 10
3165.51072041503
 20
6906.338109509238
 30
0.0
 10
3165.510148137026
 20
6906.332686565342
 30
0.0
 10
3165.509004193295
 20
6906.321846479545
 30
0.0
 10
3165.50691311123
 20
6906.311835187556
 30
0.0
 10
3165.504744453602
 20
6906.305818232389
 30
0.0
 10
3165.503294544294
 20
6906.305171220913
 30
0.0
 10
3165.502569158851
 20
6906.304847522937
 30
0.0
  0
SPLINE
  5
19D
330
1F
100
AcDbEntity
  8
0
  6
Continuous
 62
     7
370
    25
100
AcDbSpline
210
0.0
220
0.0
230
1.0
 70
     8
 71
     3
 72
    10
 73
     6
 74
     0
 42
0.00000001
 43
0.00000001
 40
0.0
 40
0.0
 40
0.0
 40
0.0
 40
0.3047058014729424
 40
0.5762581046422762
 40
1.0
 40
1.0
 40
1.0
 40
1.0
 10
3165.511653364361
 20
6906.369273892799
 30
0.0
 10
3165.511611728628
 20
6906.365965451158
 30
0.0
 10
3165.511532987336
 20
6906.359708542687
 30
0.0
 10
3165.511253301886
 20
6906.349092276702
 30
0.0
 10
3165.510922201628
 20
6906.34226831942
 30
0.0
 10
3165.51072041503
 20
6906.338109509238
 30
0.0
  0
SPLINE
  5
19E
330
1F
100
AcDbEntity
  8
0
  6
Continuous
 62
     7
370
    25
100
AcDbSpline
210
0.0
220
0.0
230
1.0
 70
     8
 71
     3
 72
    10
 73
     6
 74
     0
 42
0.00000001
 43
0.00000001
 40
0.0
 40
0.0
 40
0.0
 40
0.0
 40
0.3325154243639104
 40
0.663422655624572
 40
1.0
 40
1.0
 40
1.0
 40
1.0
 10
3165.510517298624
 20
6906.396842385951
 30
0.0
 10
3165.510682387297
 20
6906.393975309019
 30
0.0
 10
3165.511011766202
 20
6906.388255021619
 30
0.0
 10
3165.511400132179
 20
6906.379009609012
 30
0.0
 10
3165.511568476952
 20
6906.372537457967
 30
0.0
 10
3165.511653364361
 20
6906.369273892799
 30
0.0
  0
LINE
  5
19F
330
1F
100
AcDbEntity
  8
0
  6
Continuous
 62
     7
370
    25
100
AcDbLine
 10
3165.4776994753
 20
6907.0120393038
 30
0.0
 11
3165.5105172986
 21
6906.396842386
 31
0.0
  0
LINE
  5
1A0
330
1F
100
AcDbEntity
  8
0
  6
Continuous
 62
     7
370
    25
100
AcDbLine
 10
3165.5079367041
 20
6907.6167482079
 30
0.0
 11
3165.4776994753
 21
6907.0120393038
 31
0.0
  0
SPLINE
  5
1A1
330
1F
100
AcDbEntity
  8
0
  6
Continuous
 62
     7
370
    25
100
AcDbSpline
210
0.0
220
0.0
230
1.0
 70
     8
 71
     3
 72
    10
 73
     6
 74
     0
 42
0.00000001
 43
0.00000001
 40
0.0
 40
0.0
 40
0.0
 40
0.0
 40
0.2492904803073857
 40
0.4993112821062557
 40
1.0
 40
1.0
 40
1.0
 40
1.0
 10
3165.511653364361
 20
6907.670087248964
 30
0.0
 10
3165.511553534297
 20
6907.664477282197
 30
0.0
 10
3165.511353581705
 20
6907.653240913703
 30
0.0
 10
3165.509957402453
 20
6907.635163440225
 30
0.0
 10
3165.50874519244
 20
6907.624116205362
 30
0.0
 10
3165.507936704123
 20
6907.616748207868
 30
0.0
  0
SPLINE
  5
1A2
330
1F
100
AcDbEntity
  8
0
  6
Continuous
 62
     7
370
    25
100
AcDbSpline
210
0.0
220
0.0
230
1.0
 70
     8
 71
     3
 72
    11
 73
     7
 74
     0
 42
0.00000001
 43
0.00000001
 40
0.0
 40
0.0
 40
0.0
 40
0.0
 40
0.2504737303714594
 40
0.5001199898305121
 40
0.7496164706793546
 40
1.0
 40
1.0
 40
1.0
 40
1.0
 10
3165.5068362569
 20
6907.718931427046
 30
0.0
 10
3165.507398578369
 20
6907.717183231461
 30
0.0
 10
3165.508521363609
 20
6907.713692615669
 30
0.0
 10
3165.510035606183
 20
6907.70325733255
 30
0.0
 10
3165.511132673801
 20
6907.687988247203
 30
0.0
 10
3165.511479595634
 20
6907.676061303256
 30
0.0
 10
3165.511653364361
 20
6907.670087248964
 30
0.0
  0
SPLINE
  5
1A3
330
1F
100
AcDbEntity
  8
0
  6
Continuous
 62
     7
370
    25
100
AcDbSpline
210
0.0
220
0.0
230
1.0
 70
     8
 71
     3
 72
     9
 73
     5
 74
     0
 42
0.00000001
 43
0.00000001
 40
0.0
 40
0.0
 40
0.0
 40
0.0
 40
0.5001898059141883
 40
1.0
 40
1.0
 40
1.0
 40
1.0
 10
3165.503981734494
 20
6907.724025605129
 30
0.0
 10
3165.504459945063
 20
6907.723632982204
 30
0.0
 10
3165.505416003269
 20
6907.722848034329
 30
0.0
 10
3165.506362958848
 20
6907.720236632368
 30
0.0
 10
3165.5068362569
 20
6907.718931427046
 30
0.0
  0
SPLINE
  5
1A4
330
1F
100
AcDbEntity
  8
0
  6
Continuous
 62
     7
370
    25
100
AcDbSpline
210
0.0
220
0.0
230
1.0
 70
     8
 71
     3
 72
     9
 73
     5
 74
     0
 42
0.00000001
 43
0.00000001
 40
0.0
 40
0.0
 40
0.0
 40
0.0
 40
0.5018301460567296
 40
1.0
 40
1.0
 40
1.0
 40
1.0
 10
3165.499906504097
 20
6907.703948550334
 30
0.0
 10
3165.500506477278
 20
6907.709123035181
 30
0.0
 10
3165.501702047503
 20
6907.719434262769
 30
0.0
 10
3165.503223695389
 20
6907.722498896827
 30
0.0
 10
3165.503981734494
 20
6907.724025605129
 30
0.0
  0
LINE
  5
1A5
330
1F
100
AcDbEntity
  8
0
  6
Continuous
 62
     7
370
    25
100
AcDbLine
 10
3165.4727801303
 20
6907.1118252627
 30
0.0
 11
3165.4999065041
 21
6907.7039485503
 31
0.0
  0
LINE
  5
1A6
330
1F
100
AcDbEntity
  8
0
  6
Continuous
 62
     7
370
    25
100
AcDbLine
 10
3165.4567275909
 20
6907.6916625914
 30
0.0
 11
3165.4727801303
 21
6907.1118252627
 31
0.0
  0
LINE
  5
1A7
330
1F
100
AcDbEntity
  8
0
  6
Continuous
 62
     7
370
    25
100
AcDbLine
 10
3165.4533634314
 20
6906.8595378676
 30
0.0
 11
3165.4517456544
 21
6906.8592139613
 31
0.0
  0
LINE
  5
1A8
330
1F
100
AcDbEntity
  8
0
  6
Continuous
 62
     7
370
    25
100
AcDbLine
 10
3165.4517330121
 20
6906.7459434133
 30
0.0
 11
3165.4512898773
 21
6906.7459434133
 31
0.0
  0
SPLINE
  5
1A9
330
1F
100
AcDbEntity
  8
0
  6
Continuous
 62
     7
370
    25
100
AcDbSpline
210
0.0
220
0.0
230
1.0
 70
     8
 71
     3
 72
    11
 73
     7
 74
     0
 42
0.00000001
 43
0.00000001
 40
0.0
 40
0.0
 40
0.0
 40
0.0
 40
0.1247652896758542
 40
0.4996017925282017
 40
0.749209663893555
 40
0.9999999999999999
 40
0.9999999999999999
 40
0.9999999999999999
 40
0.9999999999999999
 10
3165.452469728459
 20
6906.803477659923
 30
0.0
 10
3165.452456619809
 20
6906.799674839113
 30
0.0
 10
3165.452404128407
 20
6906.784447077463
 30
0.0
 10
3165.452216600399
 20
6906.764059165542
 30
0.0
 10
3165.451941776257
 20
6906.750108983317
 30
0.0
 10
3165.451802709716
 20
6906.747334122379
 30
0.0
 10
3165.451733012135
 20
6906.745943413348
 30
0.0
  0
SPLINE
  5
1AA
330
1F
100
AcDbEntity
  8
0
  6
Continuous
 62
     7
370
    25
100
AcDbSpline
210
0.0
220
0.0
230
1.0
 70
     8
 71
     3
 72
    12
 73
     8
 74
     0
 42
0.00000001
 43
0.00000001
 40
0.0
 40
0.0
 40
0.0
 40
0.0
 40
0.498878145304097
 40
0.6196312873304671
 40
0.74690643494257
 40
0.8663109629863337
 40
1.0
 40
1.0
 40
1.0
 40
1.0
 10
3165.451745654359
 20
6906.859213961293
 30
0.0
 10
3165.451896565055
 20
6906.855861403177
 30
0.0
 10
3165.452084003591
 20
6906.851697360473
 30
0.0
 10
3165.45231295878
 20
6906.836463490045
 30
0.0
 10
3165.452397844574
 20
6906.826851953351
 30
0.0
 10
3165.452461775015
 20
6906.815697970294
 30
0.0
 10
3165.4524669794
 20
6906.807701535343
 30
0.0
 10
3165.452469728459
 20
6906.803477659923
 30
0.0
  0
LINE
  5
1AB
330
1F
100
AcDbEntity
  8
0
  6
Continuous
 62
     7
370
    25
100
AcDbLine
 10
3166.7864043423
 20
6908.2856694407
 30
0.0
 11
3166.7864043423
 21
6905.7856694407
 31
0.0
  0
LINE
  5
1AC
330
1F
100
AcDbEntity
  8
0
  6
Continuous
 62
     7
370
    25
100
AcDbLine
 10
3166.6735054869
 20
6905.7856694407
 30
0.0
 11
3166.7864043423
 21
6905.7856694407
 31
0.0
  0
LINE
  5
1AD
330
1F
100
AcDbEntity
  8
0
  6
Continuous
 62
     7
370
    25
100
AcDbLine
 10
3166.6735054869
 20
6908.2856694407
 30
0.0
 11
3166.7864043423
 21
6908.2856694407
 31
0.0
  0
LINE
  5
1AE
330
1F
100
AcDbEntity
  8
0
  6
Continuous
 62
     7
370
    25
100
AcDbLine
 10
3166.4279678526
 20
6907.1118252627
 30
0.0
 11
3166.57591306
 21
6907.7039485503
 31
0.0
  0
SPLINE
  5
1AF
330
1F
100
AcDbEntity
  8
0
  6
Continuous
 62
     7
370
    25
100
AcDbSpline
210
0.0
220
0.0
230
1.0
 70
     8
 71
     3
 72
     9
 73
     5
 74
     0
 42
0.00000001
 43
0.00000001
 40
0.0
 40
0.0
 40
0.0
 40
0.0
 40
0.5018528075883423
 40
0.9999999999999999
 40
0.9999999999999999
 40
0.9999999999999999
 40
0.9999999999999999
 10
3166.575913059967
 20
6907.703948550334
 30
0.0
 10
3166.578722045202
 20
6907.709123013931
 30
0.0
 10
3166.584319274493
 20
6907.719433733567
 30
0.0
 10
3166.59127255624
 20
6907.72249876722
 30
0.0
 10
3166.594736314019
 20
6907.724025605129
 30
0.0
  0
SPLINE
  5
1B0
330
1F
100
AcDbEntity
  8
0
  6
Continuous
 62
     7
370
    25
100
AcDbSpline
210
0.0
220
0.0
230
1.0
 70
     8
 71
     3
 72
     9
 73
     5
 74
     0
 42
0.00000001
 43
0.00000001
 40
0.0
 40
0.0
 40
0.0
 40
0.0
 40
0.4998675798210157
 40
0.9999999999999999
 40
0.9999999999999999
 40
0.9999999999999999
 40
0.9999999999999999
 10
3166.588279949874
 20
6906.304847522937
 30
0.0
 10
3166.584841575916
 20
6906.309236387368
 30
0.0
 10
3166.577963006275
 20
6906.318016441545
 30
0.0
 10
3166.572982874653
 20
6906.332409407842
 30
0.0
 10
3166.570492149373
 20
6906.33960779691
 30
0.0
  0
LINE
  5
1B1
330
1F
100
AcDbEntity
  8
0
  6
Continuous
 62
     7
370
    25
100
AcDbLine
 10
3166.5704921494
 20
6906.3396077969
 30
0.0
 11
3166.4273916396
 21
6906.917946838
 31
0.0
  0
LINE
  5
1B2
330
1F
100
AcDbEntity
  8
0
  6
Continuous
 62
     7
370
    25
100
AcDbLine
 10
3166.2675617996
 20
6906.3048475229
 30
0.0
 11
3166.2601816148
 21
6906.3078440983
 31
0.0
  0
SPLINE
  5
1B3
330
1F
100
AcDbEntity
  8
0
  6
Continuous
 62
     7
370
    25
100
AcDbSpline
210
0.0
220
0.0
230
1.0
 70
     8
 71
     3
 72
    10
 73
     6
 74
     0
 42
0.00000001
 43
0.00000001
 40
0.0
 40
0.0
 40
0.0
 40
0.0
 40
0.250284038022651
 40
0.4999128011859422
 40
0.9999999999999999
 40
0.9999999999999999
 40
0.9999999999999999
 40
0.9999999999999999
 10
3166.260181614773
 20
6906.307844098279
 30
0.0
 10
3166.258222635929
 20
6906.309308511614
 30
0.0
 10
3166.254309807093
 20
6906.312233504266
 30
0.0
 10
3166.248381999433
 20
6906.328752478878
 30
0.0
 10
3166.246477032728
 20
6906.345150738903
 30
0.0
 10
3166.245206352215
 20
6906.356088961294
 30
0.0
  0
SPLINE
  5
1B4
330
1F
100
AcDbEntity
  8
0
  6
Continuous
 62
     7
370
    25
100
AcDbSpline
210
0.0
220
0.0
230
1.0
 70
     8
 71
     3
 72
     9
 73
     5
 74
     0
 42
0.00000001
 43
0.00000001
 40
0.0
 40
0.0
 40
0.0
 40
0.0
 40
0.5000617086091496
 40
1.0
 40
1.0
 40
1.0
 40
1.0
 10
3166.245206352215
 20
6906.356088961294
 30
0.0
 10
3166.245379152664
 20
6906.365188481037
 30
0.0
 10
3166.245724710914
 20
6906.383385274728
 30
0.0
 10
3166.248789959504
 20
6906.399349348089
 30
0.0
 10
3166.250322394647
 20
6906.407330399648
 30
0.0
  0
LINE
  5
1B5
330
1F
100
AcDbEntity
  8
0
  6
Continuous
 62
     7
370
    25
100
AcDbLine
 10
3166.2503223946
 20
6906.4073303996
 30
0.0
 11
3166.3972008145
 21
6907.014436564
 31
0.0
  0
LINE
  5
1B6
330
1F
100
AcDbEntity
  8
0
  6
Continuous
 62
     7
370
    25
100
AcDbLine
 10
3166.3972008145
 20
6907.014436564
 30
0.0
 11
3166.2465621102
 21
6907.6383235503
 31
0.0
  0
SPLINE
  5
1B7
330
1F
100
AcDbEntity
  8
0
  6
Continuous
 62
     7
370
    25
100
AcDbSpline
210
0.0
220
0.0
230
1.0
 70
     8
 71
     3
 72
     9
 73
     5
 74
     0
 42
0.00000001
 43
0.00000001
 40
0.0
 40
0.0
 40
0.0
 40
0.0
 40
0.499939915500571
 40
0.9999999999999999
 40
0.9999999999999999
 40
0.9999999999999999
 40
0.9999999999999999
 10
3166.246562110226
 20
6907.638323550334
 30
0.0
 10
3166.246174927425
 20
6907.64214149181
 30
0.0
 10
3166.245400468758
 20
6907.649778292469
 30
0.0
 10
3166.245271062913
 20
6907.65772367123
 30
0.0
 10
3166.245206352215
 20
6907.661696838005
 30
0.0
  0
SPLINE
  5
1B8
330
1F
100
AcDbEntity
  8
0
  6
Continuous
 62
     7
370
    25
100
AcDbSpline
210
0.0
220
0.0
230
1.0
 70
     8
 71
     3
 72
     9
 73
     5
 74
     0
 42
0.00000001
 43
0.00000001
 40
0.0
 40
0.0
 40
0.0
 40
0.0
 40
0.5003682129158251
 40
1.0
 40
1.0
 40
1.0
 40
1.0
 10
3166.245206352215
 20
6907.661696838005
 30
0.0
 10
3166.24531512165
 20
6907.668363931709
 30
0.0
 10
3166.245532500439
 20
6907.681688306701
 30
0.0
 10
3166.248238532359
 20
6907.6925356981
 30
0.0
 10
3166.249590551923
 20
6907.697955399649
 30
0.0
  0
SPLINE
  5
1B9
330
1F
100
AcDbEntity
  8
0
  6
Continuous
 62
     7
370
    25
100
AcDbSpline
210
0.0
220
0.0
230
1.0
 70
     8
 71
     3
 72
    11
 73
     7
 74
     0
 42
0.00000001
 43
0.00000001
 40
0.0
 40
0.0
 40
0.0
 40
0.0
 40
0.2502556926832449
 40
0.5000591285676074
 40
0.7497998166589701
 40
1.0
 40
1.0
 40
1.0
 40
1.0
 10
3166.249590551923
 20
6907.697955399649
 30
0.0
 10
3166.250690102973
 20
6907.70189053573
 30
0.0
 10
3166.252887217989
 20
6907.709753696396
 30
0.0
 10
3166.257350600039
 20
6907.718053716814
 30
0.0
 10
3166.262344745677
 20
6907.723464273517
 30
0.0
 10
3166.265892139806
 20
6907.723838379978
 30
0.0
 10
3166.267667467074
 20
6907.724025605129
 30
0.0
  0
LINE
  5
1BA
330
1F
100
AcDbEntity
  8
0
  6
Continuous
 62
     7
370
    25
100
AcDbLine
 10
3166.5713566508
 20
6907.7039485503
 30
0.0
 11
3166.57591306
 21
6907.7039485503
 31
0.0
  0
LINE
  5
1BB
330
1F
100
AcDbEntity
  8
0
  6
Continuous
 62
     7
370
    25
100
AcDbLine
 10
3166.5901873625
 20
6907.7240256051
 30
0.0
 11
3166.594736314
 21
6907.7240256051
 31
0.0
  0
LINE
  5
1BC
330
1F
100
AcDbEntity
  8
0
  6
Continuous
 62
     7
370
    25
100
AcDbLine
 10
3166.5659335924
 20
6906.3396077969
 30
0.0
 11
3166.5704921494
 21
6906.3396077969
 31
0.0
  0
LINE
  5
1BD
330
1F
100
AcDbEntity
  8
0
  6
Continuous
 62
     7
370
    25
100
AcDbLine
 10
3166.4233528281
 20
6907.1118252627
 30
0.0
 11
3166.4279678526
 21
6907.1118252627
 31
0.0
  0
LINE
  5
1BE
330
1F
100
AcDbEntity
  8
0
  6
Continuous
 62
     7
370
    25
100
AcDbLine
 10
3166.4227763868
 20
6906.917946838
 30
0.0
 11
3166.4273916396
 21
6906.917946838
 31
0.0
  0
LINE
  5
1BF
330
1F
100
AcDbEntity
  8
0
  6
Continuous
 62
     7
370
    25
100
AcDbLine
 10
3166.3925736001
 20
6907.014436564
 30
0.0
 11
3166.3972008145
 21
6907.014436564
 31
0.0
  0
LINE
  5
1C0
330
1F
100
AcDbEntity
  8
0
  6
Continuous
 62
     7
370
    25
100
AcDbLine
 10
3166.2456369876
 20
6906.4073303996
 30
0.0
 11
3166.2503223946
 21
6906.4073303996
 31
0.0
  0
LINE
  5
1C1
330
1F
100
AcDbEntity
  8
0
  6
Continuous
 62
     7
370
    25
100
AcDbLine
 10
3166.2418752133
 20
6907.6383235503
 30
0.0
 11
3166.2465621102
 21
6907.6383235503
 31
0.0
  0
LINE
  5
1C2
330
1F
100
AcDbEntity
  8
0
  6
Continuous
 62
     7
370
    25
100
AcDbLine
 10
3166.2449048549
 20
6907.6979553996
 30
0.0
 11
3166.2495905519
 21
6907.6979553996
 31
0.0
  0
LINE
  5
1C3
330
1F
100
AcDbEntity
  8
0
  6
Continuous
 62
     7
370
    25
100
AcDbLine
 10
3166.262988932
 20
6907.7240256051
 30
0.0
 11
3166.2676674671
 21
6907.7240256051
 31
0.0
  0
LINE
  5
1C4
330
1F
100
AcDbEntity
  8
0
  6
Continuous
 62
     7
370
    25
100
AcDbLine
 10
3166.2555001139
 20
6906.3078440983
 30
0.0
 11
3166.2601816148
 21
6906.3078440983
 31
0.0
  0
LINE
  5
1C5
330
1F
100
AcDbEntity
  8
0
  6
Continuous
 62
     7
370
    25
100
AcDbLine
 10
3166.2628832228
 20
6906.3048475229
 30
0.0
 11
3166.2675617996
 21
6906.3048475229
 31
0.0
  0
LINE
  5
1C6
330
1F
100
AcDbEntity
  8
0
  6
Continuous
 62
     7
370
    25
100
AcDbLine
 10
3166.2405189182
 20
6906.3560889613
 30
0.0
 11
3166.2452063522
 21
6906.3560889613
 31
0.0
  0
LINE
  5
1C7
330
1F
100
AcDbEntity
  8
0
  6
Continuous
 62
     7
370
    25
100
AcDbLine
 10
3166.2405189182
 20
6907.661696838
 30
0.0
 11
3166.2452063522
 21
6907.661696838
 31
0.0
  0
LINE
  5
1C8
330
1F
100
AcDbEntity
  8
0
  6
Continuous
 62
     7
370
    25
100
AcDbLine
 10
3166.061011154
 20
6907.1118252627
 30
0.0
 11
3166.1797966581
 21
6907.7039485503
 31
0.0
  0
SPLINE
  5
1C9
330
1F
100
AcDbEntity
  8
0
  6
Continuous
 62
     7
370
    25
100
AcDbSpline
210
0.0
220
0.0
230
1.0
 70
     8
 71
     3
 72
     9
 73
     5
 74
     0
 42
0.00000001
 43
0.00000001
 40
0.0
 40
0.0
 40
0.0
 40
0.0
 40
0.5018528075875502
 40
1.0
 40
1.0
 40
1.0
 40
1.0
 10
3166.17979665814
 20
6907.703948550334
 30
0.0
 10
3166.182073599226
 20
6907.709123013931
 30
0.0
 10
3166.186610668763
 20
6907.719433733568
 30
0.0
 10
3166.192256261928
 20
6907.72249876722
 30
0.0
 10
3166.195068598312
 20
6907.724025605129
 30
0.0
  0
SPLINE
  5
1CA
330
1F
100
AcDbEntity
  8
0
  6
Continuous
 62
     7
370
    25
100
AcDbSpline
210
0.0
220
0.0
230
1.0
 70
     8
 71
     3
 72
     9
 73
     5
 74
     0
 42
0.00000001
 43
0.00000001
 40
0.0
 40
0.0
 40
0.0
 40
0.0
 40
0.4998675798208156
 40
0.9999999999999999
 40
0.9999999999999999
 40
0.9999999999999999
 40
0.9999999999999999
 10
3166.189826574253
 20
6906.304847522937
 30
0.0
 10
3166.187036979726
 20
6906.309236387368
 30
0.0
 10
3166.181456312686
 20
6906.318016441545
 30
0.0
 10
3166.17742227619
 20
6906.332409407842
 30
0.0
 10
3166.175404723755
 20
6906.33960779691
 30
0.0
  0
LINE
  5
1CB
330
1F
100
AcDbEntity
  8
0
  6
Continuous
 62
     7
370
    25
100
AcDbLine
 10
3166.1754047238
 20
6906.3396077969
 30
0.0
 11
3166.0605531809
 21
6906.917946838
 31
0.0
  0
LINE
  5
1CC
330
1F
100
AcDbEntity
  8
0
  6
Continuous
 62
     7
370
    25
100
AcDbLine
 10
3165.9351523286
 20
6906.3048475229
 30
0.0
 11
3165.9294479493
 21
6906.3078440983
 31
0.0
  0
SPLINE
  5
1CD
330
1F
100
AcDbEntity
  8
0
  6
Continuous
 62
     7
370
    25
100
AcDbSpline
210
0.0
220
0.0
230
1.0
 70
     8
 71
     3
 72
    10
 73
     6
 74
     0
 42
0.00000001
 43
0.00000001
 40
0.0
 40
0.0
 40
0.0
 40
0.0
 40
0.2502840380222929
 40
0.4999128011859738
 40
1.0
 40
1.0
 40
1.0
 40
1.0
 10
3165.929447949326
 20
6906.307844098279
 30
0.0
 10
3165.927935456804
 20
6906.309308511614
 30
0.0
 10
3165.924914431655
 20
6906.312233504266
 30
0.0
 10
3165.92034443828
 20
6906.328752478878
 30
0.0
 10
3165.918877470449
 20
6906.345150738903
 30
0.0
 10
3165.917898950755
 20
6906.356088961294
 30
0.0
  0
SPLINE
  5
1CE
330
1F
100
AcDbEntity
  8
0
  6
Continuous
 62
     7
370
    25
100
AcDbSpline
210
0.0
220
0.0
230
1.0
 70
     8
 71
     3
 72
     9
 73
     5
 74
     0
 42
0.00000001
 43
0.00000001
 40
0.0
 40
0.0
 40
0.0
 40
0.0
 40
0.5000617086091894
 40
1.0
 40
1.0
 40
1.0
 40
1.0
 10
3165.917898950755
 20
6906.356088961294
 30
0.0
 10
3165.9180318976
 20
6906.365188481037
 30
0.0
 10
3165.918297758477
 20
6906.383385274728
 30
0.0
 10
3165.92065970468
 20
6906.399349348089
 30
0.0
 10
3165.921840532028
 20
6906.407330399648
 30
0.0
  0
LINE
  5
1CF
330
1F
100
AcDbEntity
  8
0
  6
Continuous
 62
     7
370
    25
100
AcDbLine
 10
3165.921840532
 20
6906.4073303996
 30
0.0
 11
3166.0366127207
 21
6907.014436564
 31
0.0
  0
LINE
  5
1D0
330
1F
100
AcDbEntity
  8
0
  6
Continuous
 62
     7
370
    25
100
AcDbLine
 10
3166.0366127207
 20
6907.014436564
 30
0.0
 11
3165.9189430738
 21
6907.6383235503
 31
0.0
  0
SPLINE
  5
1D1
330
1F
100
AcDbEntity
  8
0
  6
Continuous
 62
     7
370
    25
100
AcDbSpline
210
0.0
220
0.0
230
1.0
 70
     8
 71
     3
 72
     9
 73
     5
 74
     0
 42
0.00000001
 43
0.00000001
 40
0.0
 40
0.0
 40
0.0
 40
0.0
 40
0.4999399155006888
 40
0.9999999999999999
 40
0.9999999999999999
 40
0.9999999999999999
 40
0.9999999999999999
 10
3165.918943073817
 20
6907.638323550334
 30
0.0
 10
3165.918644874944
 20
6907.64214149181
 30
0.0
 10
3165.918048405519
 20
6907.649778292469
 30
0.0
 10
3165.917948773001
 20
6907.65772367123
 30
0.0
 10
3165.917898950755
 20
6907.661696838005
 30
0.0
  0
SPLINE
  5
1D2
330
1F
100
AcDbEntity
  8
0
  6
Continuous
 62
     7
370
    25
100
AcDbSpline
210
0.0
220
0.0
230
1.0
 70
     8
 71
     3
 72
     9
 73
     5
 74
     0
 42
0.00000001
 43
0.00000001
 40
0.0
 40
0.0
 40
0.0
 40
0.0
 40
0.5003682129157873
 40
1.0
 40
1.0
 40
1.0
 40
1.0
 10
3165.917898950755
 20
6907.661696838005
 30
0.0
 10
3165.917982615887
 20
6907.668363931709
 30
0.0
 10
3165.918149823013
 20
6907.681688306701
 30
0.0
 10
3165.920234747671
 20
6907.6925356981
 30
0.0
 10
3165.921276442304
 20
6907.697955399649
 30
0.0
  0
SPLINE
  5
1D3
330
1F
100
AcDbEntity
  8
0
  6
Continuous
 62
     7
370
    25
100
AcDbSpline
210
0.0
220
0.0
230
1.0
 70
     8
 71
     3
 72
    11
 73
     7
 74
     0
 42
0.00000001
 43
0.00000001
 40
0.0
 40
0.0
 40
0.0
 40
0.0
 40
0.2502556926832345
 40
0.5000591285672005
 40
0.7497998166588302
 40
0.9999999999999999
 40
0.9999999999999999
 40
0.9999999999999999
 40
0.9999999999999999
 10
3165.921276442304
 20
6907.697955399649
 30
0.0
 10
3165.922124020389
 20
6907.70189053573
 30
0.0
 10
3165.923817644834
 20
6907.709753696396
 30
0.0
 10
3165.927261457088
 20
6907.718053716814
 30
0.0
 10
3165.931118152239
 20
6907.723464273517
 30
0.0
 10
3165.933861252095
 20
6907.723838379978
 30
0.0
 10
3165.935234062612
 20
6907.724025605129
 30
0.0
  0
LINE
  5
1D4
330
1F
100
AcDbEntity
  8
0
  6
Continuous
 62
     7
370
    25
100
AcDbLine
 10
3166.175083309
 20
6907.7039485503
 30
0.0
 11
3166.1797966581
 21
6907.7039485503
 31
0.0
  0
LINE
  5
1D5
330
1F
100
AcDbEntity
  8
0
  6
Continuous
 62
     7
370
    25
100
AcDbLine
 10
3166.1903612999
 20
6907.7240256051
 30
0.0
 11
3166.1950685983
 21
6907.7240256051
 31
0.0
  0
LINE
  5
1D6
330
1F
100
AcDbEntity
  8
0
  6
Continuous
 62
     7
370
    25
100
AcDbLine
 10
3166.1706896345
 20
6906.3396077969
 30
0.0
 11
3166.1754047238
 21
6906.3396077969
 31
0.0
  0
LINE
  5
1D7
330
1F
100
AcDbEntity
  8
0
  6
Continuous
 62
     7
370
    25
100
AcDbLine
 10
3166.0562507425
 20
6907.1118252627
 30
0.0
 11
3166.061011154
 21
6907.1118252627
 31
0.0
  0
LINE
  5
1D8
330
1F
100
AcDbEntity
  8
0
  6
Continuous
 62
     7
370
    25
100
AcDbLine
 10
3166.055792588
 20
6906.917946838
 30
0.0
 11
3166.0605531809
 21
6906.917946838
 31
0.0
  0
LINE
  5
1D9
330
1F
100
AcDbEntity
  8
0
  6
Continuous
 62
     7
370
    25
100
AcDbLine
 10
3166.0318426426
 20
6907.014436564
 30
0.0
 11
3166.0366127207
 21
6907.014436564
 31
0.0
  0
LINE
  5
1DA
330
1F
100
AcDbEntity
  8
0
  6
Continuous
 62
     7
370
    25
100
AcDbLine
 10
3165.9170249816
 20
6906.4073303996
 30
0.0
 11
3165.921840532
 21
6906.4073303996
 31
0.0
  0
LINE
  5
1DB
330
1F
100
AcDbEntity
  8
0
  6
Continuous
 62
     7
370
    25
100
AcDbLine
 10
3165.9141263754
 20
6907.6383235503
 30
0.0
 11
3165.9189430738
 21
6907.6383235503
 31
0.0
  0
LINE
  5
1DC
330
1F
100
AcDbEntity
  8
0
  6
Continuous
 62
     7
370
    25
100
AcDbLine
 10
3165.9164606684
 20
6907.6979553996
 30
0.0
 11
3165.9212764423
 21
6907.6979553996
 31
0.0
  0
LINE
  5
1DD
330
1F
100
AcDbEntity
  8
0
  6
Continuous
 62
     7
370
    25
100
AcDbLine
 10
3165.9304238186
 20
6907.7240256051
 30
0.0
 11
3165.9352340626
 21
6907.7240256051
 31
0.0
  0
LINE
  5
1DE
330
1F
100
AcDbEntity
  8
0
  6
Continuous
 62
     7
370
    25
100
AcDbLine
 10
3165.9246354129
 20
6906.3078440983
 30
0.0
 11
3165.9294479493
 21
6906.3078440983
 31
0.0
  0
LINE
  5
1DF
330
1F
100
AcDbEntity
  8
0
  6
Continuous
 62
     7
370
    25
100
AcDbLine
 10
3165.9303420523
 20
6906.3048475229
 30
0.0
 11
3165.9351523286
 21
6906.3048475229
 31
0.0
  0
LINE
  5
1E0
330
1F
100
AcDbEntity
  8
0
  6
Continuous
 62
     7
370
    25
100
AcDbLine
 10
3165.9130818387
 20
6906.3560889613
 30
0.0
 11
3165.9178989508
 21
6906.3560889613
 31
0.0
  0
LINE
  5
1E1
330
1F
100
AcDbEntity
  8
0
  6
Continuous
 62
     7
370
    25
100
AcDbLine
 10
3165.9130818387
 20
6907.661696838
 30
0.0
 11
3165.9178989508
 21
6907.661696838
 31
0.0
  0
LINE
  5
1E2
330
1F
100
AcDbEntity
  8
0
  6
Continuous
 62
     7
370
    25
100
AcDbLine
 10
3165.7790986415
 20
6907.1118252627
 30
0.0
 11
3165.8678836781
 21
6907.7039485503
 31
0.0
  0
SPLINE
  5
1E3
330
1F
100
AcDbEntity
  8
0
  6
Continuous
 62
     7
370
    25
100
AcDbSpline
210
0.0
220
0.0
230
1.0
 70
     8
 71
     3
 72
     9
 73
     5
 74
     0
 42
0.00000001
 43
0.00000001
 40
0.0
 40
0.0
 40
0.0
 40
0.0
 40
0.5018528075873676
 40
1.0
 40
1.0
 40
1.0
 40
1.0
 10
3165.867883678135
 20
6907.703948550334
 30
0.0
 10
3165.869612458874
 20
6907.709123013931
 30
0.0
 10
3165.873057255262
 20
6907.719433733568
 30
0.0
 10
3165.877355200317
 20
6907.72249876722
 30
0.0
 10
3165.879496209579
 20
6907.724025605129
 30
0.0
  0
SPLINE
  5
1E4
330
1F
100
AcDbEntity
  8
0
  6
Continuous
 62
     7
370
    25
100
AcDbSpline
210
0.0
220
0.0
230
1.0
 70
     8
 71
     3
 72
     9
 73
     5
 74
     0
 42
0.00000001
 43
0.00000001
 40
0.0
 40
0.0
 40
0.0
 40
0.0
 40
0.4998675798204288
 40
0.9999999999999999
 40
0.9999999999999999
 40
0.9999999999999999
 40
0.9999999999999999
 10
3165.87550562867
 20
6906.304847522937
 30
0.0
 10
3165.873384558335
 20
6906.309236387368
 30
0.0
 10
3165.869141293877
 20
6906.318016441545
 30
0.0
 10
3165.866081905433
 20
6906.332409407842
 30
0.0
 10
3165.864551806086
 20
6906.33960779691
 30
0.0
  0
LINE
  5
1E5
330
1F
100
AcDbEntity
  8
0
  6
Continuous
 62
     7
370
    25
100
AcDbLine
 10
3165.8645518061
 20
6906.3396077969
 30
0.0
 11
3165.7787621498
 21
6906.917946838
 31
0.0
  0
LINE
  5
1E6
330
1F
100
AcDbEntity
  8
0
  6
Continuous
 62
     7
370
    25
100
AcDbLine
 10
3165.6886778729
 20
6906.3048475229
 30
0.0
 11
3165.6846896748
 21
6906.3078440983
 31
0.0
  0
SPLINE
  5
1E7
330
1F
100
AcDbEntity
  8
0
  6
Continuous
 62
     7
370
    25
100
AcDbSpline
210
0.0
220
0.0
230
1.0
 70
     8
 71
     3
 72
    10
 73
     6
 74
     0
 42
0.00000001
 43
0.00000001
 40
0.0
 40
0.0
 40
0.0
 40
0.0
 40
0.2502840380224827
 40
0.4999128011860501
 40
1.0
 40
1.0
 40
1.0
 40
1.0
 10
3165.684689674763
 20
6906.307844098279
 30
0.0
 10
3165.68363437399
 20
6906.309308511614
 30
0.0
 10
3165.681526535354
 20
6906.312233504266
 30
0.0
 10
3165.678346702692
 20
6906.328752478878
 30
0.0
 10
3165.67732811694
 20
6906.345150738903
 30
0.0
 10
3165.676648684033
 20
6906.356088961294
 30
0.0
  0
SPLINE
  5
1E8
330
1F
100
AcDbEntity
  8
0
  6
Continuous
 62
     7
370
    25
100
AcDbSpline
210
0.0
220
0.0
230
1.0
 70
     8
 71
     3
 72
     9
 73
     5
 74
     0
 42
0.00000001
 43
0.00000001
 40
0.0
 40
0.0
 40
0.0
 40
0.0
 40
0.5000617086092632
 40
1.0
 40
1.0
 40
1.0
 40
1.0
 10
3165.676648684033
 20
6906.356088961294
 30
0.0
 10
3165.676740836275
 20
6906.365188481037
 30
0.0
 10
3165.676925118014
 20
6906.383385274728
 30
0.0
 10
3165.678567043966
 20
6906.399349348089
 30
0.0
 10
3165.67938790562
 20
6906.407330399648
 30
0.0
  0
LINE
  5
1E9
330
1F
100
AcDbEntity
  8
0
  6
Continuous
 62
     7
370
    25
100
AcDbLine
 10
3165.6793879056
 20
6906.4073303996
 30
0.0
 11
3165.7612415052
 21
6907.014436564
 31
0.0
  0
LINE
  5
1EA
330
1F
100
AcDbEntity
  8
0
  6
Continuous
 62
     7
370
    25
100
AcDbLine
 10
3165.7612415052
 20
6907.014436564
 30
0.0
 11
3165.6773737818
 21
6907.6383235503
 31
0.0
  0
SPLINE
  5
1EB
330
1F
100
AcDbEntity
  8
0
  6
Continuous
 62
     7
370
    25
100
AcDbSpline
210
0.0
220
0.0
230
1.0
 70
     8
 71
     3
 72
     9
 73
     5
 74
     0
 42
0.00000001
 43
0.00000001
 40
0.0
 40
0.0
 40
0.0
 40
0.0
 40
0.4999399155005524
 40
1.0
 40
1.0
 40
1.0
 40
1.0
 10
3165.677373781839
 20
6907.638323550334
 30
0.0
 10
3165.677166677545
 20
6907.64214149181
 30
0.0
 10
3165.676752419176
 20
6907.649778292469
 30
0.0
 10
3165.676683265184
 20
6907.65772367123
 30
0.0
 10
3165.676648684033
 20
6907.661696838005
 30
0.0
  0
SPLINE
  5
1EC
330
1F
100
AcDbEntity
  8
0
  6
Continuous
 62
     7
370
    25
100
AcDbSpline
210
0.0
220
0.0
230
1.0
 70
     8
 71
     3
 72
     9
 73
     5
 74
     0
 42
0.00000001
 43
0.00000001
 40
0.0
 40
0.0
 40
0.0
 40
0.0
 40
0.5003682129157824
 40
1.0
 40
1.0
 40
1.0
 40
1.0
 10
3165.676648684033
 20
6907.661696838005
 30
0.0
 10
3165.676706652678
 20
6907.668363931709
 30
0.0
 10
3165.676822504649
 20
6907.681688306701
 30
0.0
 10
3165.678271564941
 20
6907.6925356981
 30
0.0
 10
3165.678995561525
 20
6907.697955399649
 30
0.0
  0
SPLINE
  5
1ED
330
1F
100
AcDbEntity
  8
0
  6
Continuous
 62
     7
370
    25
100
AcDbSpline
210
0.0
220
0.0
230
1.0
 70
     8
 71
     3
 72
    11
 73
     7
 74
     0
 42
0.00000001
 43
0.00000001
 40
0.0
 40
0.0
 40
0.0
 40
0.0
 40
0.2502556926832045
 40
0.5000591285672848
 40
0.7497998166586385
 40
1.0
 40
1.0
 40
1.0
 40
1.0
 10
3165.678995561525
 20
6907.697955399649
 30
0.0
 10
3165.679585167484
 20
6907.70189053573
 30
0.0
 10
3165.680763313878
 20
6907.709753696396
 30
0.0
 10
3165.683163181021
 20
6907.718053716814
 30
0.0
 10
3165.685855127983
 20
6907.723464273517
 30
0.0
 10
3165.687774517892
 20
6907.723838379978
 30
0.0
 10
3165.688735094902
 20
6907.724025605129
 30
0.0
  0
LINE
  5
1EE
330
1F
100
AcDbEntity
  8
0
  6
Continuous
 62
     7
370
    25
100
AcDbLine
 10
3165.8630467502
 20
6907.7039485503
 30
0.0
 11
3165.8678836781
 21
6907.7039485503
 31
0.0
  0
LINE
  5
1EF
330
1F
100
AcDbEntity
  8
0
  6
Continuous
 62
     7
370
    25
100
AcDbLine
 10
3165.8746638825
 20
6907.7240256051
 30
0.0
 11
3165.8794962096
 21
6907.7240256051
 31
0.0
  0
LINE
  5
1F0
330
1F
100
AcDbEntity
  8
0
  6
Continuous
 62
     7
370
    25
100
AcDbLine
 10
3165.859713558
 20
6906.3396077969
 30
0.0
 11
3165.8645518061
 21
6906.3396077969
 31
0.0
  0
LINE
  5
1F1
330
1F
100
AcDbEntity
  8
0
  6
Continuous
 62
     7
370
    25
100
AcDbLine
 10
3165.7742265372
 20
6907.1118252627
 30
0.0
 11
3165.7790986415
 21
6907.1118252627
 31
0.0
  0
LINE
  5
1F2
330
1F
100
AcDbEntity
  8
0
  6
Continuous
 62
     7
370
    25
100
AcDbLine
 10
3165.7738899122
 20
6906.917946838
 30
0.0
 11
3165.7787621498
 21
6906.917946838
 31
0.0
  0
LINE
  5
1F3
330
1F
100
AcDbEntity
  8
0
  6
Continuous
 62
     7
370
    25
100
AcDbLine
 10
3165.756362326
 20
6907.014436564
 30
0.0
 11
3165.7612415052
 21
6907.014436564
 31
0.0
  0
LINE
  5
1F4
330
1F
100
AcDbEntity
  8
0
  6
Continuous
 62
     7
370
    25
100
AcDbLine
 10
3165.6744762963
 20
6906.4073303996
 30
0.0
 11
3165.6793879056
 21
6906.4073303996
 31
0.0
  0
LINE
  5
1F5
330
1F
100
AcDbEntity
  8
0
  6
Continuous
 62
     7
370
    25
100
AcDbLine
 10
3165.6724613745
 20
6907.6383235503
 30
0.0
 11
3165.6773737818
 21
6907.6383235503
 31
0.0
  0
LINE
  5
1F6
330
1F
100
AcDbEntity
  8
0
  6
Continuous
 62
     7
370
    25
100
AcDbLine
 10
3165.6740837967
 20
6907.6979553996
 30
0.0
 11
3165.6789955615
 21
6907.6979553996
 31
0.0
  0
LINE
  5
1F7
330
1F
100
AcDbEntity
  8
0
  6
Continuous
 62
     7
370
    25
100
AcDbLine
 10
3165.6838271889
 20
6907.7240256051
 30
0.0
 11
3165.6887350949
 21
6907.7240256051
 31
0.0
  0
LINE
  5
1F8
330
1F
100
AcDbEntity
  8
0
  6
Continuous
 62
     7
370
    25
100
AcDbLine
 10
3165.679780166
 20
6906.3078440983
 30
0.0
 11
3165.6846896748
 21
6906.3078440983
 31
0.0
  0
LINE
  5
1F9
330
1F
100
AcDbEntity
  8
0
  6
Continuous
 62
     7
370
    25
100
AcDbLine
 10
3165.6837699442
 20
6906.3048475229
 30
0.0
 11
3165.6886778729
 21
6906.3048475229
 31
0.0
  0
LINE
  5
1FA
330
1F
100
AcDbEntity
  8
0
  6
Continuous
 62
     7
370
    25
100
AcDbLine
 10
3165.6717359894
 20
6906.3560889613
 30
0.0
 11
3165.676648684
 21
6906.3560889613
 31
0.0
  0
LINE
  5
1FB
330
1F
100
AcDbEntity
  8
0
  6
Continuous
 62
     7
370
    25
100
AcDbLine
 10
3165.6717359894
 20
6907.661696838
 30
0.0
 11
3165.676648684
 21
6907.661696838
 31
0.0
  0
LINE
  5
1FC
330
1F
100
AcDbEntity
  8
0
  6
Continuous
 62
     7
370
    25
100
AcDbLine
 10
3165.5842256927
 20
6907.1118252627
 30
0.0
 11
3165.6423818411
 21
6907.7039485503
 31
0.0
  0
SPLINE
  5
1FD
330
1F
100
AcDbEntity
  8
0
  6
Continuous
 62
     7
370
    25
100
AcDbSpline
210
0.0
220
0.0
230
1.0
 70
     8
 71
     3
 72
     9
 73
     5
 74
     0
 42
0.00000001
 43
0.00000001
 40
0.0
 40
0.0
 40
0.0
 40
0.0
 40
0.5018528075877338
 40
1.0
 40
1.0
 40
1.0
 40
1.0
 10
3165.642381841146
 20
6907.703948550334
 30
0.0
 10
3165.643550225222
 20
6907.709123013931
 30
0.0
 10
3165.645878366181
 20
6907.719433733567
 30
0.0
 10
3165.648798242255
 20
6907.72249876722
 30
0.0
 10
3165.650252770322
 20
6907.724025605129
 30
0.0
  0
SPLINE
  5
1FE
330
1F
100
AcDbEntity
  8
0
  6
Continuous
 62
     7
370
    25
100
AcDbSpline
210
0.0
220
0.0
230
1.0
 70
     8
 71
     3
 72
     9
 73
     5
 74
     0
 42
0.00000001
 43
0.00000001
 40
0.0
 40
0.0
 40
0.0
 40
0.0
 40
0.4998675798204376
 40
1.0
 40
1.0
 40
1.0
 40
1.0
 10
3165.647541877912
 20
6906.304847522937
 30
0.0
 10
3165.646104344711
 20
6906.309236387368
 30
0.0
 10
3165.643228516676
 20
6906.318016441545
 30
0.0
 10
3165.641165430646
 20
6906.332409407842
 30
0.0
 10
3165.640133614437
 20
6906.33960779691
 30
0.0
  0
LINE
  5
1FF
330
1F
100
AcDbEntity
  8
0
  6
Continuous
 62
     7
370
    25
100
AcDbLine
 10
3165.6401336144
 20
6906.3396077969
 30
0.0
 11
3165.5840130643
 21
6906.917946838
 31
0.0
  0
LINE
  5
200
330
1F
100
AcDbEntity
  8
0
  6
Continuous
 62
     7
370
    25
100
AcDbLine
 10
3165.5298829795
 20
6906.3048475229
 30
0.0
 11
3165.527639191
 21
6906.3078440983
 31
0.0
  0
SPLINE
  5
201
330
1F
100
AcDbEntity
  8
0
  6
Continuous
 62
     7
370
    25
100
AcDbSpline
210
0.0
220
0.0
230
1.0
 70
     8
 71
     3
 72
    10
 73
     6
 74
     0
 42
0.00000001
 43
0.00000001
 40
0.0
 40
0.0
 40
0.0
 40
0.0
 40
0.2502840380224724
 40
0.4999128011860317
 40
1.0
 40
1.0
 40
1.0
 40
1.0
 10
3165.527639191032
 20
6906.307844098279
 30
0.0
 10
3165.527048551431
 20
6906.309308511614
 30
0.0
 10
3165.525868818598
 20
6906.312233504266
 30
0.0
 10
3165.524101653517
 20
6906.328752478878
 30
0.0
 10
3165.523538659397
 20
6906.345150738903
 30
0.0
 10
3165.523163122305
 20
6906.356088961294
 30
0.0
  0
SPLINE
  5
202
330
1F
100
AcDbEntity
  8
0
  6
Continuous
 62
     7
370
    25
100
AcDbSpline
210
0.0
220
0.0
230
1.0
 70
     8
 71
     3
 72
     9
 73
     5
 74
     0
 42
0.00000001
 43
0.00000001
 40
0.0
 40
0.0
 40
0.0
 40
0.0
 40
0.5000617086092588
 40
1.0
 40
1.0
 40
1.0
 40
1.0
 10
3165.523163122305
 20
6906.356088961294
 30
0.0
 10
3165.523213827689
 20
6906.365188481037
 30
0.0
 10
3165.523315225945
 20
6906.383385274728
 30
0.0
 10
3165.524225510087
 20
6906.399349348089
 30
0.0
 10
3165.524680595986
 20
6906.407330399648
 30
0.0
  0
LINE
  5
203
330
1F
100
AcDbEntity
  8
0
  6
Continuous
 62
     7
370
    25
100
AcDbLine
 10
3165.524680596
 20
6906.4073303996
 30
0.0
 11
3165.5730362464
 21
6907.014436564
 31
0.0
  0
LINE
  5
204
330
1F
100
AcDbEntity
  8
0
  6
Continuous
 62
     7
370
    25
100
AcDbLine
 10
3165.5730362464
 20
6907.014436564
 30
0.0
 11
3165.5235640626
 21
6907.6383235503
 31
0.0
  0
SPLINE
  5
205
330
1F
100
AcDbEntity
  8
0
  6
Continuous
 62
     7
370
    25
100
AcDbSpline
210
0.0
220
0.0
230
1.0
 70
     8
 71
     3
 72
     9
 73
     5
 74
     0
 42
0.00000001
 43
0.00000001
 40
0.0
 40
0.0
 40
0.0
 40
0.0
 40
0.499939915500579
 40
1.0
 40
1.0
 40
1.0
 40
1.0
 10
3165.523564062609
 20
6907.638323550334
 30
0.0
 10
3165.52344951878
 20
6907.64214149181
 30
0.0
 10
3165.523220403588
 20
6907.649778292469
 30
0.0
 10
3165.523182217595
 20
6907.65772367123
 30
0.0
 10
3165.523163122305
 20
6907.661696838005
 30
0.0
  0
SPLINE
  5
206
330
1F
100
AcDbEntity
  8
0
  6
Continuous
 62
     7
370
    25
100
AcDbSpline
210
0.0
220
0.0
230
1.0
 70
     8
 71
     3
 72
     9
 73
     5
 74
     0
 42
0.00000001
 43
0.00000001
 40
0.0
 40
0.0
 40
0.0
 40
0.0
 40
0.5003682129158804
 40
0.9999999999999999
 40
0.9999999999999999
 40
0.9999999999999999
 40
0.9999999999999999
 10
3165.523163122305
 20
6907.661696838005
 30
0.0
 10
3165.52319498416
 20
6907.668363931709
 30
0.0
 10
3165.523258660976
 20
6907.681688306701
 30
0.0
 10
3165.524061600448
 20
6907.6925356981
 30
0.0
 10
3165.524462774531
 20
6907.697955399649
 30
0.0
  0
SPLINE
  5
207
330
1F
100
AcDbEntity
  8
0
  6
Continuous
 62
     7
370
    25
100
AcDbSpline
210
0.0
220
0.0
230
1.0
 70
     8
 71
     3
 72
    11
 73
     7
 74
     0
 42
0.00000001
 43
0.00000001
 40
0.0
 40
0.0
 40
0.0
 40
0.0
 40
0.25025569268308
 40
0.5000591285672921
 40
0.7497998166587738
 40
1.0
 40
1.0
 40
1.0
 40
1.0
 10
3165.524462774531
 20
6907.697955399649
 30
0.0
 10
3165.524790235131
 20
6907.70189053573
 30
0.0
 10
3165.525444564551
 20
6907.709753696396
 30
0.0
 10
3165.526783500314
 20
6907.718053716814
 30
0.0
 10
3165.528291645476
 20
6907.723464273517
 30
0.0
 10
3165.529373739992
 20
6907.723838379978
 30
0.0
 10
3165.529915284526
 20
6907.724025605129
 30
0.0
  0
LINE
  5
208
330
1F
100
AcDbEntity
  8
0
  6
Continuous
 62
     7
370
    25
100
AcDbLine
 10
3165.6374555701
 20
6907.7039485503
 30
0.0
 11
3165.6423818411
 21
6907.7039485503
 31
0.0
  0
LINE
  5
209
330
1F
100
AcDbEntity
  8
0
  6
Continuous
 62
     7
370
    25
100
AcDbLine
 10
3165.6453296177
 20
6907.7240256051
 30
0.0
 11
3165.6502527703
 21
6907.7240256051
 31
0.0
  0
LINE
  5
20A
330
1F
100
AcDbEntity
  8
0
  6
Continuous
 62
     7
370
    25
100
AcDbLine
 10
3165.6352064527
 20
6906.3396077969
 30
0.0
 11
3165.6401336144
 21
6906.3396077969
 31
0.0
  0
LINE
  5
20B
330
1F
100
AcDbEntity
  8
0
  6
Continuous
 62
     7
370
    25
100
AcDbLine
 10
3165.5792763805
 20
6907.1118252627
 30
0.0
 11
3165.5842256927
 21
6907.1118252627
 31
0.0
  0
LINE
  5
20C
330
1F
100
AcDbEntity
  8
0
  6
Continuous
 62
     7
370
    25
100
AcDbLine
 10
3165.5790636677
 20
6906.917946838
 30
0.0
 11
3165.5840130643
 21
6906.917946838
 31
0.0
  0
LINE
  5
20D
330
1F
100
AcDbEntity
  8
0
  6
Continuous
 62
     7
370
    25
100
AcDbLine
 10
3165.5680825009
 20
6907.014436564
 30
0.0
 11
3165.5730362464
 21
6907.014436564
 31
0.0
  0
LINE
  5
20E
330
1F
100
AcDbEntity
  8
0
  6
Continuous
 62
     7
370
    25
100
AcDbLine
 10
3165.5197076921
 20
6906.4073303996
 30
0.0
 11
3165.524680596
 21
6906.4073303996
 31
0.0
  0
LINE
  5
20F
330
1F
100
AcDbEntity
  8
0
  6
Continuous
 62
     7
370
    25
100
AcDbLine
 10
3165.5185907164
 20
6907.6383235503
 30
0.0
 11
3165.5235640626
 21
6907.6383235503
 31
0.0
  0
LINE
  5
210
330
1F
100
AcDbEntity
  8
0
  6
Continuous
 62
     7
370
    25
100
AcDbLine
 10
3165.5194897844
 20
6907.6979553996
 30
0.0
 11
3165.5244627745
 21
6907.6979553996
 31
0.0
  0
LINE
  5
211
330
1F
100
AcDbEntity
  8
0
  6
Continuous
 62
     7
370
    25
100
AcDbLine
 10
3165.5226674594
 20
6906.3078440983
 30
0.0
 11
3165.527639191
 21
6906.3078440983
 31
0.0
  0
LINE
  5
212
330
1F
100
AcDbEntity
  8
0
  6
Continuous
 62
     7
370
    25
100
AcDbLine
 10
3165.5249121368
 20
6906.3048475229
 30
0.0
 11
3165.5298829795
 21
6906.3048475229
 31
0.0
  0
LINE
  5
213
330
1F
100
AcDbEntity
  8
0
  6
Continuous
 62
     7
370
    25
100
AcDbLine
 10
3165.5181896173
 20
6906.3560889613
 30
0.0
 11
3165.5231631223
 21
6906.3560889613
 31
0.0
  0
LINE
  5
214
330
1F
100
AcDbEntity
  8
0
  6
Continuous
 62
     7
370
    25
100
AcDbLine
 10
3165.5181896173
 20
6907.661696838
 30
0.0
 11
3165.5231631223
 21
6907.661696838
 31
0.0
  0
LINE
  5
215
330
1F
100
AcDbEntity
  8
0
  6
Continuous
 62
     7
370
    25
100
AcDbLine
 10
3165.4777716193
 20
6907.1118252627
 30
0.0
 11
3165.50488725
 21
6907.7039485503
 31
0.0
  0
SPLINE
  5
216
330
1F
100
AcDbEntity
  8
0
  6
Continuous
 62
     7
370
    25
100
AcDbSpline
210
0.0
220
0.0
230
1.0
 70
     8
 71
     3
 72
     9
 73
     5
 74
     0
 42
0.00000001
 43
0.00000001
 40
0.0
 40
0.0
 40
0.0
 40
0.0
 40
0.5018528075876526
 40
0.9999999999999999
 40
0.9999999999999999
 40
0.9999999999999999
 40
0.9999999999999999
 10
3165.504887249987
 20
6907.703948550334
 30
0.0
 10
3165.505486967575
 20
6907.709123013931
 30
0.0
 10
3165.506681974513
 20
6907.719433733567
 30
0.0
 10
3165.508203114713
 20
6907.72249876722
 30
0.0
 10
3165.508960866432
 20
6907.724025605129
 30
0.0
  0
SPLINE
  5
217
330
1F
100
AcDbEntity
  8
0
  6
Continuous
 62
     7
370
    25
100
AcDbSpline
210
0.0
220
0.0
230
1.0
 70
     8
 71
     3
 72
     9
 73
     5
 74
     0
 42
0.00000001
 43
0.00000001
 40
0.0
 40
0.0
 40
0.0
 40
0.0
 40
0.499867579820701
 40
1.0
 40
1.0
 40
1.0
 40
1.0
 10
3165.507548850225
 20
6906.304847522937
 30
0.0
 10
3165.506805029025
 20
6906.309236387368
 30
0.0
 10
3165.505316992533
 20
6906.318016441545
 30
0.0
 10
3165.504264811447
 20
6906.332409407842
 30
0.0
 10
3165.503738581575
 20
6906.33960779691
 30
0.0
  0
LINE
  5
218
330
1F
100
AcDbEntity
  8
0
  6
Continuous
 62
     7
370
    25
100
AcDbLine
 10
3165.5037385816
 20
6906.3396077969
 30
0.0
 11
3165.4776843589
 21
6906.917946838
 31
0.0
  0
LINE
  5
219
330
1F
100
AcDbEntity
  8
0
  6
Continuous
 62
     7
370
    25
100
AcDbLine
 10
3165.458813622
 20
6906.4073303996
 30
0.0
 11
3165.4733290618
 21
6907.014436564
 31
0.0
  0
LINE
  5
21A
330
1F
100
AcDbEntity
  8
0
  6
Continuous
 62
     7
370
    25
100
AcDbLine
 10
3165.4733290618
 20
6907.014436564
 30
0.0
 11
3165.4609069519
 21
6907.540698965
 31
0.0
  0
LINE
  5
21B
330
1F
100
AcDbEntity
  8
0
  6
Continuous
 62
     7
370
    25
100
AcDbLine
 10
3165.4999065041
 20
6907.7039485503
 30
0.0
 11
3165.50488725
 21
6907.7039485503
 31
0.0
  0
LINE
  5
21C
330
1F
100
AcDbEntity
  8
0
  6
Continuous
 62
     7
370
    25
100
AcDbLine
 10
3165.5039817345
 20
6907.7240256051
 30
0.0
 11
3165.5089608664
 21
6907.7240256051
 31
0.0
  0
LINE
  5
21D
330
1F
100
AcDbEntity
  8
0
  6
Continuous
 62
     7
370
    25
100
AcDbLine
 10
3165.4987573806
 20
6906.3396077969
 30
0.0
 11
3165.5037385816
 21
6906.3396077969
 31
0.0
  0
LINE
  5
21E
330
1F
100
AcDbEntity
  8
0
  6
Continuous
 62
     7
370
    25
100
AcDbLine
 10
3165.4727801303
 20
6907.1118252627
 30
0.0
 11
3165.4777716193
 21
6907.1118252627
 31
0.0
  0
LINE
  5
21F
330
1F
100
AcDbEntity
  8
0
  6
Continuous
 62
     7
370
    25
100
AcDbLine
 10
3165.4726928353
 20
6906.917946838
 30
0.0
 11
3165.4776843589
 21
6906.917946838
 31
0.0
  0
LINE
  5
220
330
1F
100
AcDbEntity
  8
0
  6
Continuous
 62
     7
370
    25
100
AcDbLine
 10
3165.4683358126
 20
6907.014436564
 30
0.0
 11
3165.4733290618
 21
6907.014436564
 31
0.0
  0
LINE
  5
221
330
1F
100
AcDbEntity
  8
0
  6
Continuous
 62
     7
370
    25
100
AcDbLine
 10
3165.4538146219
 20
6906.4073303996
 30
0.0
 11
3165.458813622
 21
6906.4073303996
 31
0.0
  0
LINE
  5
222
330
1F
100
AcDbEntity
  8
0
  6
Continuous
 62
     7
370
    25
100
AcDbLine
 10
3165.4536034982
 20
6907.6383235503
 30
0.0
 11
3165.4586025819
 21
6907.6383235503
 31
0.0
  0
LINE
  5
223
330
1F
100
AcDbEntity
  8
0
  6
Continuous
 62
     7
370
    25
100
AcDbLine
 10
3165.4537728483
 20
6907.6979553996
 30
0.0
 11
3165.4587718649
 21
6907.6979553996
 31
0.0
  0
LINE
  5
224
330
1F
100
AcDbEntity
  8
0
  6
Continuous
 62
     7
370
    25
100
AcDbLine
 10
3165.4544093375
 20
6906.3078440983
 30
0.0
 11
3165.459408102
 21
6906.3078440983
 31
0.0
  0
LINE
  5
225
330
1F
100
AcDbEntity
  8
0
  6
Continuous
 62
     7
370
    25
100
AcDbLine
 10
3165.4548930262
 20
6906.3048475229
 30
0.0
 11
3165.4598915992
 21
6906.3048475229
 31
0.0
  0
LINE
  5
226
330
1F
100
AcDbEntity
  8
0
  6
Continuous
 62
     7
370
    25
100
AcDbLine
 10
3165.4535295239
 20
6906.3560889613
 30
0.0
 11
3165.4585286369
 21
6906.3560889613
 31
0.0
  0
LINE
  5
227
330
1F
100
AcDbEntity
  8
0
  6
Continuous
 62
     7
370
    25
100
AcDbLine
 10
3165.4535295239
 20
6907.661696838
 30
0.0
 11
3165.4585286369
 21
6907.661696838
 31
0.0
  0
LINE
  5
228
330
1F
100
AcDbEntity
  8
0
  6
Continuous
 62
     7
370
    25
100
AcDbLine
 10
3165.7012898773
 20
6967.6856694407
 30
0.0
 11
3165.7012898773
 21
6968.6856694407
 31
0.0
  0
SPLINE
  5
229
330
1F
100
AcDbEntity
  8
0
  6
Continuous
 62
     7
370
    25
100
AcDbSpline
210
0.0
220
0.0
230
1.0
 70
     8
 71
     3
 72
    13
 73
     9
 74
     0
 42
0.00000001
 43
0.00000001
 40
0.0
 40
0.0
 40
0.0
 40
0.0
 40
0.0815925620046585
 40
0.3062098700124155
 40
0.5377395130945991
 40
0.7904922446264109
 40
0.9197656435025366
 40
1.0
 40
1.0
 40
1.0
 40
1.0
 10
3190.426400634956
 20
6923.323404376915
 30
0.0
 10
3190.435086045677
 20
6923.341734639253
 30
0.0
 10
3190.467681645354
 20
6923.410526537798
 30
0.0
 10
3190.2571236151
 20
6922.967964143329
 30
0.0
 10
3189.865157380881
 20
6922.05774465335
 30
0.0
 10
3189.471617728883
 20
6920.877073311532
 30
0.0
 10
3189.230966839442
 20
6919.855824176366
 30
0.0
 10
3189.170330148981
 20
6919.349780725585
 30
0.0
 10
3189.147108355446
 20
6919.15598326658
 30
0.0
  0
SPLINE
  5
22A
330
1F
100
AcDbEntity
  8
0
  6
Continuous
 62
     7
370
    25
100
AcDbSpline
210
0.0
220
0.0
230
1.0
 70
     8
 71
     3
 72
    12
 73
     8
 74
     0
 42
0.00000001
 43
0.00000001
 40
0.0
 40
0.0
 40
0.0
 40
0.0
 40
0.1318818454181329
 40
0.5054194082570866
 40
0.6891342568643825
 40
0.8792693531189799
 40
1.0
 40
1.0
 40
1.0
 40
1.0
 10
3189.593441166619
 20
6914.619087503446
 30
0.0
 10
3189.646248205767
 20
6914.433062545855
 30
0.0
 10
3189.848624070264
 20
6913.720146953201
 30
0.0
 10
3190.149609973364
 20
6913.067363610015
 30
0.0
 10
3190.360578413682
 20
6912.592386039403
 30
0.0
 10
3190.445898914631
 20
6912.415003885956
 30
0.0
 10
3190.454532560713
 20
6912.396770505305
 30
0.0
 10
3190.457885602016
 20
6912.389689223788
 30
0.0
  0
LINE
  5
22B
330
1F
100
AcDbEntity
  8
0
  6
Continuous
 62
     7
370
    25
100
AcDbLine
 10
3165.6262898773
 20
6969.9356694407
 30
0.0
 11
3190.5262898773
 21
6969.9356694407
 31
0.0
  0
LINE
  5
22C
330
1F
100
AcDbEntity
  8
0
  6
Continuous
 62
     7
370
    25
100
AcDbLine
 10
3165.7762898773
 20
6969.7856694407
 30
0.0
 11
3190.3762898773
 21
6969.7856694407
 31
0.0
  0
LINE
  5
22D
330
1F
100
AcDbEntity
  8
0
  6
Continuous
 62
     7
370
    25
100
AcDbLine
 10
3166.1262898773
 20
6971.2856694407
 30
0.0
 11
3190.0262898773
 21
6971.2856694407
 31
0.0
  0
LINE
  5
22E
330
1F
100
AcDbEntity
  8
0
  6
Continuous
 62
     7
370
    25
100
AcDbLine
 10
3165.6262898773
 20
6970.7856694407
 30
0.0
 11
3190.5262898773
 21
6970.7856694407
 31
0.0
  0
SPLINE
  5
22F
330
1F
100
AcDbEntity
  8
0
  6
Continuous
 62
     7
370
    25
100
AcDbSpline
210
0.0
220
0.0
230
1.0
 70
     8
 71
     3
 72
    19
 73
    15
 74
     0
 42
0.00000001
 43
0.00000001
 40
0.0
 40
0.0
 40
0.0
 40
0.0
 40
0.1095111136530684
 40
0.2188085637225372
 40
0.3337218008868093
 40
0.3937649660886534
 40
0.4557319309146864
 40
0.5124776762065326
 40
0.5712121483837727
 40
0.6758631400627204
 40
0.7829545959137224
 40
0.9005761109068394
 40
0.9603512658028911
 40
1.0
 40
1.0
 40
1.0
 40
1.0
 10
3190.451289877301
 20
6912.260669440743
 30
0.0
 10
3190.426076884919
 20
6912.316044326468
 30
0.0
 10
3190.375700092407
 20
6912.426686057773
 30
0.0
 10
3190.017162381226
 20
6913.281071736815
 30
0.0
 10
3189.652424755565
 20
6914.349603454357
 30
0.0
 10
3189.386784734501
 20
6915.428296204665
 30
0.0
 10
3189.233492527227
 20
6916.320564320261
 30
0.0
 10
3189.149191643556
 20
6917.256895002347
 30
0.0
 10
3189.141688402814
 20
6918.442222540983
 30
0.0
 10
3189.307793429513
 20
6919.871459980955
 30
0.0
 10
3189.693902997751
 20
6921.379991468768
 30
0.0
 10
3190.053081084506
 20
6922.365599177919
 30
0.0
 10
3190.273896355961
 20
6922.903685756682
 30
0.0
 10
3190.333745629063
 20
6923.041254947443
 30
0.0
 10
3190.357612608546
 20
6923.09611544755
 30
0.0
  0
SPLINE
  5
230
330
1F
100
AcDbEntity
  8
0
  6
Continuous
 62
     7
370
    25
100
AcDbSpline
210
0.0
220
0.0
230
1.0
 70
     8
 71
     3
 72
    26
 73
    22
 74
     0
 42
0.00000001
 43
0.00000001
 40
0.0
 40
0.0
 40
0.0
 40
0.0
 40
0.0475448847484225
 40
0.0965881775284169
 40
0.1441056613867713
 40
0.1928358838377171
 40
0.2438102838868683
 40
0.2959960045415728
 40
0.352118039872346
 40
0.4100669855322546
 40
0.4540372416434328
 40
0.499248888153166
 40
0.5432404325530085
 40
0.5885272152312346
 40
0.6774133088574172
 40
0.7284118715568247
 40
0.7806096045473632
 40
0.8369145499420058
 40
0.8950863273822974
 40
0.9473095639211782
 40
1.0
 40
1.0
 40
1.0
 40
1.0
 10
3190.451289877301
 20
6943.035669440745
 30
0.0
 10
3190.442293824278
 20
6943.051511324818
 30
0.0
 10
3190.424018201756
 20
6943.083694360268
 30
0.0
 10
3190.280424871841
 20
6943.340492694928
 30
0.0
 10
3190.064652718397
 20
6943.740294196207
 30
0.0
 10
3189.78449452953
 20
6944.287817496576
 30
0.0
 10
3189.456256952021
 20
6944.983836902464
 30
0.0
 10
3189.098475312012
 20
6945.841124202425
 30
0.0
 10
3188.746330930318
 20
6946.860415328107
 30
0.0
 10
3188.476085565806
 20
6947.938397285803
 30
0.0
 10
3188.317009566728
 20
6949.007817417035
 30
0.0
 10
3188.264578870891
 20
6950.006625772613
 30
0.0
 10
3188.312237328692
 20
6951.015893169852
 30
0.0
 10
3188.498965522267
 20
6952.313742959606
 30
0.0
 10
3188.849751375159
 20
6953.558290453148
 30
0.0
 10
3189.273540195914
 20
6954.664823203898
 30
0.0
 10
3189.629342840102
 20
6955.465114202641
 30
0.0
 10
3189.971176554367
 20
6956.154478935835
 30
0.0
 10
3190.241474107254
 20
6956.660546236618
 30
0.0
 10
3190.418604881766
 20
6956.978177532893
 30
0.0
 10
3190.439311325594
 20
6957.014581326142
 30
0.0
 10
3190.449710652276
 20
6957.032864279101
 30
0.0
  0
ARC
  5
231
330
1F
100
AcDbEntity
  8
0
  6
Continuous
 62
     7
370
    25
100
AcDbCircle
 10
3153.3353538084
 20
6968.1856868318
 30
0.0
 40
12.381719513978
100
AcDbArc
 50
357.1420728553
 51
2.8933048532
  0
LINE
  5
232
330
1F
100
AcDbEntity
  8
0
  6
Continuous
 62
     7
370
    25
100
AcDbLine
 10
3190.4512898773
 20
6969.6856694407
 30
0.0
 11
3165.7012898773
 21
6969.6856694407
 31
0.0
  0
LINE
  5
233
330
1F
100
AcDbEntity
  8
0
  6
Continuous
 62
     7
370
    25
100
AcDbLine
 10
3165.7012898773
 20
6903.3856694407
 30
0.0
 11
3190.4512898773
 21
6903.3856694407
 31
0.0
  0
LINE
  5
234
330
1F
100
AcDbEntity
  8
0
  6
Continuous
 62
     7
370
    25
100
AcDbLine
 10
3193.0762898773
 20
6902.3158329076
 30
0.0
 11
3163.0762898773
 21
6902.3158329076
 31
0.0
  0
LINE
  5
235
330
1F
100
AcDbEntity
  8
0
  6
Continuous
 62
     7
370
    25
100
AcDbLine
 10
3163.3177713339
 20
6902.7340910594
 30
0.0
 11
3192.8348084207
 21
6902.7340910594
 31
0.0
  0
LINE
  5
236
330
1F
100
AcDbEntity
  8
0
  6
Continuous
 62
     7
370
    25
100
AcDbLine
 10
3177.5048543109
 20
6901.2856694407
 30
0.0
 11
3163.0762898773
 21
6901.2856694407
 31
0.0
  0
LINE
  5
237
330
1F
100
AcDbEntity
  8
0
  6
Continuous
 62
     7
370
    25
100
AcDbLine
 10
3193.0762898773
 20
6901.2856694407
 30
0.0
 11
3177.5048543109
 21
6901.2856694407
 31
0.0
  0
LINE
  5
238
330
1F
100
AcDbEntity
  8
0
  6
Continuous
 62
     7
370
    25
100
AcDbLine
 10
3177.592474431
 20
6903.2856694407
 30
0.0
 11
3165.3762898773
 21
6903.2856694407
 31
0.0
  0
LINE
  5
239
330
1F
100
AcDbEntity
  8
0
  6
Continuous
 62
     7
370
    25
100
AcDbLine
 10
3190.7762898773
 20
6903.2856694407
 30
0.0
 11
3177.592474431
 21
6903.2856694407
 31
0.0
  0
LINE
  5
23A
330
1F
100
AcDbEntity
  8
0
  6
Continuous
 62
     7
370
    25
100
AcDbLine
 10
3006.110540982
 20
6779.6040370451
 30
0.0
 11
3006.110540982
 21
6735.2917415885
 31
0.0
  0
LINE
  5
23B
330
1F
100
AcDbEntity
  8
0
  6
Continuous
 62
     7
370
    25
100
AcDbLine
 10
3020.060540982
 20
6735.2917415885
 30
0.0
 11
3020.060540982
 21
6779.6040370451
 31
0.0
  0
LINE
  5
23C
330
1F
100
AcDbEntity
  8
0
  6
Continuous
 62
     7
370
    25
100
AcDbLine
 10
3006.5273400092
 20
6732.9167415885
 30
0.0
 11
3019.6437419548
 21
6732.9167415885
 31
0.0
  0
ARC
  5
23D
330
1F
100
AcDbEntity
  8
0
  6
Continuous
 62
     7
370
    25
100
AcDbCircle
 10
3013.085540982
 20
6735.2917415885
 30
0.0
 40
6.975000000000364
100
AcDbArc
 50
180.0
 51
199.9074488975
  0
ARC
  5
23E
330
1F
100
AcDbEntity
  8
0
  6
Continuous
 62
     7
370
    25
100
AcDbCircle
 10
3013.085540982
 20
6735.2917415885
 30
0.0
 40
6.974999999999909
100
AcDbArc
 50
340.0925511025
 51
0.0
  0
LINE
  5
23F
330
1F
100
AcDbEntity
  8
0
  6
Continuous
 62
     7
370
    25
100
AcDbLine
 10
3007.2838171003
 20
6732.4167415885
 30
0.0
 11
3018.8872648637
 21
6732.4167415885
 31
0.0
  0
LINE
  5
240
330
1F
100
AcDbEntity
  8
0
  6
Continuous
 62
     7
370
    25
100
AcDbLine
 10
3007.2838171003
 20
6732.4167415885
 30
0.0
 11
3006.5273400092
 21
6732.9167415885
 31
0.0
  0
LINE
  5
241
330
1F
100
AcDbEntity
  8
0
  6
Continuous
 62
     7
370
    25
100
AcDbLine
 10
3019.6437419548
 20
6732.9167415885
 30
0.0
 11
3018.8872648637
 21
6732.4167415885
 31
0.0
  0
LINE
  5
242
330
1F
100
AcDbEntity
  8
0
  6
Continuous
 62
     7
370
    25
100
AcDbLine
 10
3007.6663959252
 20
6801.3195259789
 30
0.0
 11
3007.7200508267
 21
6801.2066271236
 31
0.0
  0
LINE
  5
243
330
1F
100
AcDbEntity
  8
0
  6
Continuous
 62
     7
370
    25
100
AcDbLine
 10
3018.4510311373
 20
6801.2066271236
 30
0.0
 11
3018.5046860388
 21
6801.3195259789
 31
0.0
  0
ARC
  5
244
330
1F
100
AcDbEntity
  8
0
  6
Continuous
 62
     7
370
    25
100
AcDbCircle
 10
3013.085540982
 20
6789.9167415885
 30
0.0
 40
12.50000000000082
100
AcDbArc
 50
64.5807116611
 51
115.4192883389
  0
ARC
  5
245
330
1F
100
AcDbEntity
  8
0
  6
Continuous
 62
     7
370
    25
100
AcDbCircle
 10
3013.085540982
 20
6789.9167415885
 30
0.0
 40
12.62499999999999
100
AcDbArc
 50
64.5807116611
 51
115.4192883389
  0
LINE
  5
246
330
1F
100
AcDbEntity
  8
0
  6
Continuous
 62
     7
370
    25
100
AcDbLine
 10
3011.8909182322
 20
6802.4850947617
 30
0.0
 11
3011.8913913502
 21
6802.4801171961
 31
0.0
  0
LINE
  5
247
330
1F
100
AcDbEntity
  8
0
  6
Continuous
 62
     7
370
    25
100
AcDbLine
 10
3010.8386954315
 20
6802.3401996447
 30
0.0
 11
3010.8395852713
 21
6802.3352794633
 31
0.0
  0
LINE
  5
248
330
1F
100
AcDbEntity
  8
0
  6
Continuous
 62
     7
370
    25
100
AcDbLine
 10
3010.73274191
 20
6802.3205700913
 30
0.0
 11
3010.7336737116
 21
6802.315657684
 31
0.0
  0
LINE
  5
249
330
1F
100
AcDbEntity
  8
0
  6
Continuous
 62
     7
370
    25
100
AcDbLine
 10
3010.7365693256
 20
6802.3212954764
 30
0.0
 11
3010.7374996114
 21
6802.3163827818
 31
0.0
  0
LINE
  5
24A
330
1F
100
AcDbEntity
  8
0
  6
Continuous
 62
     7
370
    25
100
AcDbLine
 10
3011.7836896908
 20
6802.4744407494
 30
0.0
 11
3011.7842052754
 21
6802.4694674032
 31
0.0
  0
LINE
  5
24B
330
1F
100
AcDbEntity
  8
0
  6
Continuous
 62
     7
370
    25
100
AcDbLine
 10
3011.7875645344
 20
6802.4748418486
 30
0.0
 11
3011.7880785845
 21
6802.4698683435
 31
0.0
  0
LINE
  5
24C
330
1F
100
AcDbEntity
  8
0
  6
Continuous
 62
     7
370
    25
100
AcDbLine
 10
3008.6881264506
 20
6801.7511562525
 30
0.0
 11
3008.6898680009
 21
6801.7464693556
 31
0.0
  0
LINE
  5
24D
330
1F
100
AcDbEntity
  8
0
  6
Continuous
 62
     7
370
    25
100
AcDbLine
 10
3008.6917782662
 20
6801.7525125477
 30
0.0
 11
3008.6935183702
 21
6801.7478251136
 31
0.0
  0
SPLINE
  5
24E
330
1F
100
AcDbEntity
  8
0
  6
Continuous
 62
     7
370
    25
100
AcDbSpline
210
0.0
220
0.0
230
1.0
 70
     8
 71
     3
 72
    12
 73
     8
 74
     0
 42
0.00000001
 43
0.00000001
 40
0.0
 40
0.0
 40
0.0
 40
0.0
 40
0.125381508214972
 40
0.2506859940730946
 40
0.5008455041432531
 40
0.7508581249193897
 40
1.0
 40
1.0
 40
1.0
 40
1.0
 10
3013.842501101405
 20
6802.519028538846
 30
0.0
 10
3013.847510054443
 20
6802.518726279597
 30
0.0
 10
3013.857524883499
 20
6802.51812194678
 30
0.0
 10
3013.886699139245
 20
6802.516314233889
 30
0.0
 10
3013.934004002885
 20
6802.513243356277
 30
0.0
 10
3014.002592410729
 20
6802.508494062261
 30
0.0
 10
3014.057317436833
 20
6802.504260552349
 30
0.0
 10
3014.084632217589
 20
6802.502147489948
 30
0.0
  0
LINE
  5
24F
330
1F
100
AcDbEntity
  8
0
  6
Continuous
 62
     7
370
    25
100
AcDbLine
 10
3014.0842365379
 20
6802.4971631708
 30
0.0
 11
3014.0846322176
 21
6802.5021474899
 31
0.0
  0
SPLINE
  5
250
330
1F
100
AcDbEntity
  8
0
  6
Continuous
 62
     7
370
    25
100
AcDbSpline
210
0.0
220
0.0
230
1.0
 70
     8
 71
     3
 72
    12
 73
     8
 74
     0
 42
0.00000001
 43
0.00000001
 40
0.0
 40
0.0
 40
0.0
 40
0.0
 40
0.1253815082149875
 40
0.2506859940730878
 40
0.5008455041432164
 40
0.7508581249193542
 40
1.0
 40
1.0
 40
1.0
 40
1.0
 10
3014.747161547174
 20
6802.431918059433
 30
0.0
 10
3014.752135776591
 20
6802.431256234008
 30
0.0
 10
3014.762081179737
 20
6802.429932989721
 30
0.0
 10
3014.79104979287
 20
6802.426031134088
 30
0.0
 10
3014.838011162011
 20
6802.419565051684
 30
0.0
 10
3014.906080180208
 20
6802.409893741225
 30
0.0
 10
3014.960358844329
 20
6802.401734224721
 30
0.0
 10
3014.987450833419
 20
6802.397661583367
 30
0.0
  0
LINE
  5
251
330
1F
100
AcDbEntity
  8
0
  6
Continuous
 62
     7
370
    25
100
AcDbLine
 10
3014.3944441807
 20
6802.4686805789
 30
0.0
 11
3014.3949627635
 21
6802.4736536133
 31
0.0
  0
ARC
  5
252
330
1F
100
AcDbEntity
  8
0
  6
Continuous
 62
     7
370
    25
100
AcDbCircle
 10
3013.085540982
 20
6789.9167415885
 30
0.0
 40
12.62500000000053
100
AcDbArc
 50
84.0467719016
 51
85.4610987525
  0
LINE
  5
253
330
1F
100
AcDbEntity
  8
0
  6
Continuous
 62
     7
370
    25
100
AcDbLine
 10
3014.7263657041
 20
6802.4346615128
 30
0.0
 11
3014.7471615472
 21
6802.4319180594
 31
0.0
  0
LINE
  5
254
330
1F
100
AcDbEntity
  8
0
  6
Continuous
 62
     7
370
    25
100
AcDbLine
 10
3014.5925704194
 20
6802.4464368073
 30
0.0
 11
3014.5931674993
 21
6802.4514010289
 31
0.0
  0
LINE
  5
255
330
1F
100
AcDbEntity
  8
0
  6
Continuous
 62
     7
370
    25
100
AcDbLine
 10
3014.4697947515
 20
6802.4605943261
 30
0.0
 11
3014.470343188
 21
6802.4655641568
 31
0.0
  0
CIRCLE
  5
256
330
1F
100
AcDbEntity
  8
0
  6
Continuous
 62
     7
370
    25
100
AcDbCircle
 10
3013.085540982
 20
6789.9167415885
 30
0.0
 40
11.94999999999982
  0
CIRCLE
  5
257
330
1F
100
AcDbEntity
  8
0
  6
Continuous
 62
     7
370
    25
100
AcDbCircle
 10
3013.085540982
 20
6789.9167415885
 30
0.0
 40
12.44999999999982
  0
ARC
  5
258
330
1F
100
AcDbEntity
  8
0
  6
Continuous
 62
     7
370
    25
100
AcDbCircle
 10
3013.085540982
 20
6734.9167416863
 30
0.0
 40
2.625000000000278
100
AcDbArc
 50
252.2472168342
 51
287.7527831658
  0
LWPOLYLINE
  5
259
330
1F
100
AcDbEntity
  8
0
  6
Continuous
 62
     7
370
    25
100
AcDbPolyline
 90
        3
 70
   128
 43
0.0
 10
3013.085540982
 20
6805.0417415885
 10
3011.4609802193
 20
6804.8664178681
 10
3010.7877635622
 20
6804.7397079294
  0
LWPOLYLINE
  5
25A
330
1F
100
AcDbEntity
  8
0
  6
Continuous
 62
     7
370
    25
100
AcDbPolyline
 90
        3
 70
   128
 43
0.0
 10
3015.3834444674
 20
6804.7396811601
 10
3014.7101017447
 20
6804.8664178681
 10
3013.085540982
 20
6805.0417415885
  0
ARC
  5
25B
330
1F
100
AcDbEntity
  8
0
  6
Continuous
 62
     7
370
    25
100
AcDbCircle
 10
3013.085540982
 20
6789.9167415885
 30
0.0
 40
12.7000000000002
100
AcDbArc
 50
303.3130106878
 51
177.8167486155
  0
ARC
  5
25C
330
1F
100
AcDbEntity
  8
0
  6
Continuous
 62
     7
370
    25
100
AcDbCircle
 10
3013.085540982
 20
6789.9167415885
 30
0.0
 40
12.7000000000002
100
AcDbArc
 50
177.8167486155
 51
236.6869893122
  0
ARC
  5
25D
330
1F
100
AcDbEntity
  8
0
  6
Continuous
 62
     7
370
    25
100
AcDbCircle
 10
3013.085540982
 20
6789.9167415885
 30
0.0
 40
14.75851854342765
100
AcDbArc
 50
357.8167486155
 51
241.7962522017
  0
ARC
  5
25E
330
1F
100
AcDbEntity
  8
0
  6
Continuous
 62
     7
370
    25
100
AcDbCircle
 10
3013.085540982
 20
6789.9167415885
 30
0.0
 40
14.75851854342765
100
AcDbArc
 50
298.2037477983
 51
357.8167486155
  0
ARC
  5
25F
330
1F
100
AcDbEntity
  8
0
  6
Continuous
 62
     7
370
    25
100
AcDbCircle
 10
3013.085540982
 20
6789.9167415885
 30
0.0
 40
15.00000000000016
100
AcDbArc
 50
297.7102220493
 51
357.8167486155
  0
ARC
  5
260
330
1F
100
AcDbEntity
  8
0
  6
Continuous
 62
     7
370
    25
100
AcDbCircle
 10
3013.085540982
 20
6789.9167415885
 30
0.0
 40
15.00000000000016
100
AcDbArc
 50
357.8167486155
 51
242.2897779507
  0
ENDSEC
  0
SECTION
  2
OBJECTS
  0
DICTIONARY
  5
C
330
0
100
AcDbDictionary
281
     1
  3
ACAD_GROUP
350
D
  3
ACAD_LAYOUT
350
1A
  3
ACAD_MLINESTYLE
350
17
  3
ACAD_PLOTSETTINGS
350
19
  3
ACAD_PLOTSTYLENAME
350
E
  3
ACAD_SCALELIST
350
47
  3
DWGPROPS
350
261
  0
DICTIONARY
  5
D
102
{ACAD_REACTORS
330
C
102
}
330
C
100
AcDbDictionary
281
     1
  0
DICTIONARY
  5
1A
102
{ACAD_REACTORS
330
C
102
}
330
C
100
AcDbDictionary
281
     1
  3
Layout1
350
1E
  3
Layout2
350
26
  3
Model
350
22
  0
DICTIONARY
  5
17
102
{ACAD_REACTORS
330
C
102
}
330
C
100
AcDbDictionary
281
     1
  3
Standard
350
18
  0
DICTIONARY
  5
19
102
{ACAD_REACTORS
330
C
102
}
330
C
100
AcDbDictionary
281
     1
  0
ACDBDICTIONARYWDFLT
  5
E
102
{ACAD_REACTORS
330
C
102
}
330
C
100
AcDbDictionary
281
     1
  3
Normal
350
F
100
AcDbDictionaryWithDefault
340
F
  0
DICTIONARY
  5
47
102
{ACAD_REACTORS
330
C
102
}
330
C
100
AcDbDictionary
281
     1
  3
A0
350
48
  3
A1
350
49
  3
A2
350
4A
  3
A3
350
4B
  3
A4
350
4C
  3
A5
350
4D
  3
A6
350
4E
  3
A7
350
4F
  3
A8
350
50
  3
A9
350
51
  3
B0
350
52
  3
B1
350
53
  3
B2
350
54
  3
B3
350
55
  3
B4
350
56
  3
B5
350
57
  3
B6
350
58
  3
B7
350
59
  3
B8
350
5A
  3
B9
350
5B
  3
C0
350
5C
  3
C1
350
5D
  3
C2
350
5E
  3
C3
350
5F
  3
C4
350
60
  3
C5
350
61
  3
C6
350
62
  3
C7
350
63
  3
C8
350
64
  3
C9
350
65
  3
D0
350
66
  3
D1
350
67
  3
D2
350
68
  0
XRECORD
  5
261
102
{ACAD_REACTORS
330
C
102
}
330
C
100
AcDbXrecord
280
     1
  1
DWGPROPS COOKIE
  2

  3

  4

  6

  7

  8
radek.stransky
  9

300
=
301
=
302
=
303
=
304
=
305
=
306
=
307
=
308
=
309
=
 40
0.0
 41
2459089.430377824
 42
2459089.430378866
  1

 90
        0
  0
LAYOUT
  5
1E
102
{ACAD_REACTORS
330
1A
102
}
330
1A
100
AcDbPlotSettings
  1

  2
none_device
  4

  6

 40
0.0
 41
0.0
 42
0.0
 43
0.0
 44
0.0
 45
0.0
 46
0.0
 47
0.0
 48
0.0
 49
0.0
140
0.0
141
0.0
142
1.0
143
1.0
 70
   688
 72
     1
 73
     0
 74
     5
  7

 75
    16
147
1.0
148
0.0
149
0.0
100
AcDbLayout
  1
Layout1
 70
     1
 71
     1
 10
0.0
 20
0.0
 11
420.0
 21
297.0
 12
0.0
 22
0.0
 32
0.0
 14
1.0000000000E+20
 24
1.0000000000E+20
 34
1.0000000000E+20
 15
-1.0000000000E+20
 25
-1.0000000000E+20
 35
-1.0000000000E+20
146
0.0
 13
0.0
 23
0.0
 33
0.0
 16
1.0
 26
0.0
 36
0.0
 17
0.0
 27
1.0
 37
0.0
 76
     0
330
1B
  0
LAYOUT
  5
26
102
{ACAD_REACTORS
330
1A
102
}
330
1A
100
AcDbPlotSettings
  1

  2
none_device
  4

  6

 40
0.0
 41
0.0
 42
0.0
 43
0.0
 44
0.0
 45
0.0
 46
0.0
 47
0.0
 48
0.0
 49
0.0
140
0.0
141
0.0
142
1.0
143
1.0
 70
   688
 72
     1
 73
     0
 74
     5
  7

 75
    16
147
1.0
148
0.0
149
0.0
100
AcDbLayout
  1
Layout2
 70
     1
 71
     2
 10
0.0
 20
0.0
 11
0.0
 21
0.0
 12
0.0
 22
0.0
 32
0.0
 14
0.0
 24
0.0
 34
0.0
 15
0.0
 25
0.0
 35
0.0
146
0.0
 13
0.0
 23
0.0
 33
0.0
 16
1.0
 26
0.0
 36
0.0
 17
0.0
 27
1.0
 37
0.0
 76
     0
330
23
  0
LAYOUT
  5
22
102
{ACAD_REACTORS
330
1A
102
}
330
1A
100
AcDbPlotSettings
  1

  2
none_device
  4
Letter_(8.50_x_11.00_Inches)
  6

 40
6.35
 41
6.35
 42
6.35000508
 43
6.35000508
 44
215.9
 45
279.4
 46
0.0
 47
0.0
 48
0.0
 49
0.0
140
0.0
141
0.0
142
1.0
143
1.0
 70
  1712
 72
     1
 73
     0
 74
     0
  7

 75
     0
147
1.0
148
0.0
149
0.0
100
AcDbLayout
  1
Model
 70
     1
 71
     0
 10
0.0
 20
0.0
 11
20000.0
 21
10000.0
 12
0.0
 22
0.0
 32
0.0
 14
0.0
 24
0.0
 34
0.0
 15
20000.0
 25
10000.0
 35
0.0
146
0.0
 13
0.0
 23
0.0
 33
0.0
 16
1.0
 26
0.0
 36
0.0
 17
0.0
 27
1.0
 37
0.0
 76
     0
330
1F
331
29
  0
MLINESTYLE
  5
18
102
{ACAD_REACTORS
330
17
102
}
330
17
100
AcDbMlineStyle
  2
Standard
 70
     0
  3

 62
   256
 51
90.0
 52
90.0
 71
     2
 49
0.5
 62
   256
  6
BYLAYER
 49
-0.5
 62
   256
  6
BYLAYER
  0
ACDBPLACEHOLDER
  5
F
102
{ACAD_REACTORS
330
E
102
}
330
E
  0
SCALE
  5
48
102
{ACAD_REACTORS
330
47
102
}
330
47
100
AcDbScale
 70
     0
300
1:1
140
1.0
141
1.0
290
     1
  0
SCALE
  5
49
102
{ACAD_REACTORS
330
47
102
}
330
47
100
AcDbScale
 70
     0
300
1:2
140
1.0
141
2.0
290
     0
  0
SCALE
  5
4A
102
{ACAD_REACTORS
330
47
102
}
330
47
100
AcDbScale
 70
     0
300
1:4
140
1.0
141
4.0
290
     0
  0
SCALE
  5
4B
102
{ACAD_REACTORS
330
47
102
}
330
47
100
AcDbScale
 70
     0
300
1:5
140
1.0
141
5.0
290
     0
  0
SCALE
  5
4C
102
{ACAD_REACTORS
330
47
102
}
330
47
100
AcDbScale
 70
     0
300
1:8
140
1.0
141
8.0
290
     0
  0
SCALE
  5
4D
102
{ACAD_REACTORS
330
47
102
}
330
47
100
AcDbScale
 70
     0
300
1:10
140
1.0
141
10.0
290
     0
  0
SCALE
  5
4E
102
{ACAD_REACTORS
330
47
102
}
330
47
100
AcDbScale
 70
     0
300
1:16
140
1.0
141
16.0
290
     0
  0
SCALE
  5
4F
102
{ACAD_REACTORS
330
47
102
}
330
47
100
AcDbScale
 70
     0
300
1:20
140
1.0
141
20.0
290
     0
  0
SCALE
  5
50
102
{ACAD_REACTORS
330
47
102
}
330
47
100
AcDbScale
 70
     0
300
1:30
140
1.0
141
30.0
290
     0
  0
SCALE
  5
51
102
{ACAD_REACTORS
330
47
102
}
330
47
100
AcDbScale
 70
     0
300
1:40
140
1.0
141
40.0
290
     0
  0
SCALE
  5
52
102
{ACAD_REACTORS
330
47
102
}
330
47
100
AcDbScale
 70
     0
300
1:50
140
1.0
141
50.0
290
     0
  0
SCALE
  5
53
102
{ACAD_REACTORS
330
47
102
}
330
47
100
AcDbScale
 70
     0
300
1:100
140
1.0
141
100.0
290
     0
  0
SCALE
  5
54
102
{ACAD_REACTORS
330
47
102
}
330
47
100
AcDbScale
 70
     0
300
2:1
140
2.0
141
1.0
290
     0
  0
SCALE
  5
55
102
{ACAD_REACTORS
330
47
102
}
330
47
100
AcDbScale
 70
     0
300
4:1
140
4.0
141
1.0
290
     0
  0
SCALE
  5
56
102
{ACAD_REACTORS
330
47
102
}
330
47
100
AcDbScale
 70
     0
300
8:1
140
8.0
141
1.0
290
     0
  0
SCALE
  5
57
102
{ACAD_REACTORS
330
47
102
}
330
47
100
AcDbScale
 70
     0
300
10:1
140
10.0
141
1.0
290
     0
  0
SCALE
  5
58
102
{ACAD_REACTORS
330
47
102
}
330
47
100
AcDbScale
 70
     0
300
100:1
140
100.0
141
1.0
290
     0
  0
SCALE
  5
59
102
{ACAD_REACTORS
330
47
102
}
330
47
100
AcDbScale
 70
     0
300
1/128" = 1'-0"
140
0.0078125
141
12.0
290
     0
  0
SCALE
  5
5A
102
{ACAD_REACTORS
330
47
102
}
330
47
100
AcDbScale
 70
     0
300
1/64" = 1'-0"
140
0.015625
141
12.0
290
     0
  0
SCALE
  5
5B
102
{ACAD_REACTORS
330
47
102
}
330
47
100
AcDbScale
 70
     0
300
1/32" = 1'-0"
140
0.03125
141
12.0
290
     0
  0
SCALE
  5
5C
102
{ACAD_REACTORS
330
47
102
}
330
47
100
AcDbScale
 70
     0
300
1/16" = 1'-0"
140
0.0625
141
12.0
290
     0
  0
SCALE
  5
5D
102
{ACAD_REACTORS
330
47
102
}
330
47
100
AcDbScale
 70
     0
300
3/32" = 1'-0"
140
0.09375
141
12.0
290
     0
  0
SCALE
  5
5E
102
{ACAD_REACTORS
330
47
102
}
330
47
100
AcDbScale
 70
     0
300
1/8" = 1'-0"
140
0.125
141
12.0
290
     0
  0
SCALE
  5
5F
102
{ACAD_REACTORS
330
47
102
}
330
47
100
AcDbScale
 70
     0
300
3/16" = 1'-0"
140
0.1875
141
12.0
290
     0
  0
SCALE
  5
60
102
{ACAD_REACTORS
330
47
102
}
330
47
100
AcDbScale
 70
     0
300
1/4" = 1'-0"
140
0.25
141
12.0
290
     0
  0
SCALE
  5
61
102
{ACAD_REACTORS
330
47
102
}
330
47
100
AcDbScale
 70
     0
300
3/8" = 1'-0"
140
0.375
141
12.0
290
     0
  0
SCALE
  5
62
102
{ACAD_REACTORS
330
47
102
}
330
47
100
AcDbScale
 70
     0
300
1/2" = 1'-0"
140
0.5
141
12.0
290
     0
  0
SCALE
  5
63
102
{ACAD_REACTORS
330
47
102
}
330
47
100
AcDbScale
 70
     0
300
3/4" = 1'-0"
140
0.75
141
12.0
290
     0
  0
SCALE
  5
64
102
{ACAD_REACTORS
330
47
102
}
330
47
100
AcDbScale
 70
     0
300
1" = 1'-0"
140
1.0
141
12.0
290
     0
  0
SCALE
  5
65
102
{ACAD_REACTORS
330
47
102
}
330
47
100
AcDbScale
 70
     0
300
1-1/2" = 1'-0"
140
1.5
141
12.0
290
     0
  0
SCALE
  5
66
102
{ACAD_REACTORS
330
47
102
}
330
47
100
AcDbScale
 70
     0
300
3" = 1'-0"
140
3.0
141
12.0
290
     0
  0
SCALE
  5
67
102
{ACAD_REACTORS
330
47
102
}
330
47
100
AcDbScale
 70
     0
300
6" = 1'-0"
140
6.0
141
12.0
290
     0
  0
SCALE
  5
68
102
{ACAD_REACTORS
330
47
102
}
330
47
100
AcDbScale
 70
     0
300
1'-0" = 1'-0"
140
12.0
141
12.0
290
     0
  0
ENDSEC
  0
EOF
